>
 >
Buried Alive By Love 1

Buried Alive By Love 1 Guitar Tabs

H.I.M - Buried Alive By Love 1 chords, tabs, tablatures, lyrics

Guitar lessons | Add/correct | Request | Top 50 tabs Artists:  A B C D E F G H I J K L M N O P Q R S T U V W X Y Z 0-9

Buried Alive By Love 1 Guitar Tabs – H.I.M

CD, Sheet music, Poster

Do you like Buried Alive By Love 1? Share with your friends now
Bass TabsBass Tabs v2Bass Tabs v3ChordsDrum TabsTabsTabs v2Tabs v3Tabs v4Tabs v5Tabs v6Tabs v7Ukulele
HIM  BURIED ALIVE BY LOVE
LOVE METAL

E, B, G, D, A, E

Intro:
                            (Play 8x)
|-----------------------------------|
|-----------------------------------|
|o---------------------------------o|
|o---------------------------------o|
|------2-2-2-2-2-----2-2-2-2-2-2-2--|
|--3p0-0-0-0-0-0-3p0-0-0-0-0-0-0-0--|

Verse:
                            (Play 3x)
|-----------------------------------|
|-----------------------------------|
|o---------------------------------o|
|o---------------------------------o|
|-----------------------------------|
|-----------------------------------|


|-----------------------------------|
|-----------------------------------|
|------------------------5-5-5-5-5--|
|------------------------x-x-x-x-x--|
|------2-2-2-2-2-----2-2-3-3-3-3-3--|
|--3p0-0-0-0-0-0-3p0-0-0------------|


|-----------------------------------|
|-----------------------------------|
|-----------------------------------|
|-----------------------------------|
|--2~~~~~~~~~~~~~~~~~~~~~~~~~~~~~~--|
|--0~~~~~~~~~~~~~~~~~~~~~~~~~~~~~~--|


|-----------------------------------|
|-----------------------------------|
|-----------------------------------|
|-----------------------------------|
|--~~~~~~~~~~~~~~~~~~~~~~~-x\\\\\\--|
|--~~~~~~~~~~~~~~~~~~~~~~~-x\\\\\\--|

Pre-chorus:
|-------------------------------------------------------------------|
|-------------------------------------------------------------------|
|o-----------------------------------------------------------------o|
|o-2~~~~~~~~~~~~~~~~~~~~~~~~~~~~~~---------------------------------o|
|--0~~~~~~~~~~~~~~~~~~~~~~~~~~~~~~-----2-2-2-2-2-----2-2-2-2-2-2-2--|
|----------------------------------3p0-0-0-0-0-0-3p0-0-0-0-0-0-0-0--|


|-------------------------------------------------------------------|
|-------------------------------------------------------------------|
|-------------------------------------------------------------------|
|--2~~~~~~~~~~~~~~--------------------------------------------------|
|--0~~~~~~~~~~~~~~-x\\\\\\\\\\\\\\-----2-2-2-2-2-----2-2-2-2-2-2-2--|
|------------------x\\\\\\\\\\\\\\-3p0-0-0-0-0-0-3p0-0-0-0-0-0-0-0--|


|-------------------------------------------------------------------|
|-------------------------------------------------------------------|
|-------------------------------------------------------------------|
|--7~~~~~~~~~~~~~~~~~~~~~~~~~~~~~~-7~~~~-7~~~~-7\\------------------|
|--5~~~~~~~~~~~~~~~~~~~~~~~~~~~~~~-5~~~~-5~~~~-5\\------------------|
|--5~~~~~~~~~~~~~~~~~~~~~~~~~~~~~~-5~~~~-5~~~~-5\\------------------|

Chorus:
|-------------------------------------------------------------------|
|-------------------------------------------------------------------|
|--9-9-9-9-9-9-9-9111111111111111112121212121212211414141414141414--|
|--x-x-x-x-x-x-x-x-x-x-x-x-x-x-x-x-x-x-x-x-x-x-x-x-x-x-x-x-x-x-x-x--|
|--7-7-7-7-7-7-7-7-9-9-9-9-9-9-9-910101010101010101212121212121212--|
|-------------------------------------------------------------------|


|-------------------------------------------------------------------|
|-------------------------------------------------------------------|
|---------------------------------12121212121212121111111111111111--|
|------------------------7~~-7-7~~-x-x-x-x-x-x-x-x-x-x-x-x-x-x-x-x--|
|--2~~-2-2-2-2-2-5~~-5-5-5~~-5-5~~1010101010101010-9-9-9-9-9-9-9-9--|
|--0~~-0-0-0-0-0-3~~-3-3-5~~-5-5~~----------------------------------|


|-------------------------------------------------------------------|
|-------------------------------------------------------------------|
|--9-9-9-9-9-9-9-9-7-7-7-7-7-7-7-7----------------------------------|
|--x-x-x-x-x-x-x-x-x-x-x-x-x-x-x-x----------------------------------|
|--7-7-7-7-7-7-7-7-5-5-5-5-5-5-5-5-2~~-2-2-2-2-2-4~~-4-4-5~~-5-5~~--|
|----------------------------------0~~-0-0-0-0-0-2~~-2-2-3~~-3-3~~--|


|-------------------------------------------------------------------|
|-------------------------------------------------------------------|
|--9-9-9-9-9-9-9-9111111111111111112121212121212211414141414141414--|
|--x-x-x-x-x-x-x-x-x-x-x-x-x-x-x-x-x-x-x-x-x-x-x-x-x-x-x-x-x-x-x-x--|
|--7-7-7-7-7-7-7-7-9-9-9-9-9-9-9-910101010101010101212121212121212--|
|-------------------------------------------------------------------|


|-------------------------------------------------------------------|
|-------------------------------------------------------------------|
|---------------------------------12121212121212121111111111111111--|
|------------------------7~~-7-7~~-x-x-x-x-x-x-x-x-x-x-x-x-x-x-x-x--|
|--2~~-2-2-2-2-2-5~~-5-5-5~~-5-5~~1010101010101010-9-9-9-9-9-9-9-9--|
|--0~~-0-0-0-0-0-3~~-3-3-5~~-5-5~~----------------------------------|


|-----------------------------------|
|-----------------------------------|
|--9-9-9-9-9-9-9-9-7-7-7-7-7-7-7-7--|
|--x-x-x-x-x-x-x-x-x-x-x-x-x-x-x-x--|
|--7-7-7-7-7-7-7-7-5-5-5-5-5-5-5-5--|
|-----------------------------------|

Pre-verse:
                            (Play 8x)
|-----------------------------------|
|-----------------------------------|
|o---------------------------------o|
|o---------------------------------o|
|------2-2-2-2-2-----2-2-2-2-2-2-2--|
|--3p0-0-0-0-0-0-3p0-0-0-0-0-0-0-0--|

Verse:
                            (Play 3x)
|-----------------------------------|
|-----------------------------------|
|o---------------------------------o|
|o---------------------------------o|
|-----------------------------------|
|-----------------------------------|


|-----------------------------------|
|-----------------------------------|
|------------------------5-5-5-5-5--|
|------------------------x-x-x-x-x--|
|------2-2-2-2-2-----2-2-3-3-3-3-3--|
|--3p0-0-0-0-0-0-3p0-0-0------------|


|-----------------------------------|
|-----------------------------------|
|-----------------------------------|
|-----------------------------------|
|--2~~~~~~~~~~~~~~~~~~~~~~~~~~~~~~--|
|--0~~~~~~~~~~~~~~~~~~~~~~~~~~~~~~--|


|-----------------------------------|
|-----------------------------------|
|-----------------------------------|
|-----------------------------------|
|--~~~~~~~~~~~~~~~~~~~~~~~-x\\\\\\--|
|--~~~~~~~~~~~~~~~~~~~~~~~-x\\\\\\--|

Pre-chorus:
|-------------------------------------------------------------------|
|-------------------------------------------------------------------|
|o-----------------------------------------------------------------o|
|o-2~~~~~~~~~~~~~~~~~~~~~~~~~~~~~~---------------------------------o|
|--0~~~~~~~~~~~~~~~~~~~~~~~~~~~~~~-----2-2-2-2-2-----2-2-2-2-2-2-2--|
|----------------------------------3p0-0-0-0-0-0-3p0-0-0-0-0-0-0-0--|


|-------------------------------------------------------------------|
|-------------------------------------------------------------------|
|-------------------------------------------------------------------|
|--2~~~~~~~~~~~~~~--------------------------------------------------|
|--0~~~~~~~~~~~~~~-x\\\\\\\\\\\\\\-----2-2-2-2-2-----2-2-2-2-2-2-2--|
|------------------x\\\\\\\\\\\\\\-3p0-0-0-0-0-0-3p0-0-0-0-0-0-0-0--|


|-------------------------------------------------------------------|
|-------------------------------------------------------------------|
|-------------------------------------------------------------------|
|--7~~~~~~~~~~~~~~~~~~~~~~~~~~~~~~-7~~~~-7~~~~-7\\------------------|
|--5~~~~~~~~~~~~~~~~~~~~~~~~~~~~~~-5~~~~-5~~~~-5\\------------------|
|--5~~~~~~~~~~~~~~~~~~~~~~~~~~~~~~-5~~~~-5~~~~-5\\------------------|

Chorus:
|-------------------------------------------------------------------|
|-------------------------------------------------------------------|
|--9-9-9-9-9-9-9-9111111111111111112121212121212211414141414141414--|
|--x-x-x-x-x-x-x-x-x-x-x-x-x-x-x-x-x-x-x-x-x-x-x-x-x-x-x-x-x-x-x-x--|
|--7-7-7-7-7-7-7-7-9-9-9-9-9-9-9-910101010101010101212121212121212--|
|-------------------------------------------------------------------|


|-------------------------------------------------------------------|
|-------------------------------------------------------------------|
|---------------------------------12121212121212121111111111111111--|
|------------------------7~~-7-7~~-x-x-x-x-x-x-x-x-x-x-x-x-x-x-x-x--|
|--2~~-2-2-2-2-2-5~~-5-5-5~~-5-5~~1010101010101010-9-9-9-9-9-9-9-9--|
|--0~~-0-0-0-0-0-3~~-3-3-5~~-5-5~~----------------------------------|


|-------------------------------------------------------------------|
|-------------------------------------------------------------------|
|--9-9-9-9-9-9-9-9-7-7-7-7-7-7-7-7----------------------------------|
|--x-x-x-x-x-x-x-x-x-x-x-x-x-x-x-x----------------------------------|
|--7-7-7-7-7-7-7-7-5-5-5-5-5-5-5-5-2~~-2-2-2-2-2-4~~-4-4-5~~-5-5~~--|
|----------------------------------0~~-0-0-0-0-0-2~~-2-2-3~~-3-3~~--|


|-------------------------------------------------------------------|
|-------------------------------------------------------------------|
|--9-9-9-9-9-9-9-9111111111111111112121212121212211414141414141414--|
|--x-x-x-x-x-x-x-x-x-x-x-x-x-x-x-x-x-x-x-x-x-x-x-x-x-x-x-x-x-x-x-x--|
|--7-7-7-7-7-7-7-7-9-9-9-9-9-9-9-910101010101010101212121212121212--|
|-------------------------------------------------------------------|


|-------------------------------------------------------------------|
|-------------------------------------------------------------------|
|---------------------------------12121212121212121111111111111111--|
|------------------------7~~-7-7~~-x-x-x-x-x-x-x-x-x-x-x-x-x-x-x-x--|
|--2~~-2-2-2-2-2-5~~-5-5-5~~-5-5~~1010101010101010-9-9-9-9-9-9-9-9--|
|--0~~-0-0-0-0-0-3~~-3-3-5~~-5-5~~----------------------------------|


|-----------------------------------|
|-----------------------------------|
|--9-9-9-9-9-9-9-9-7-7-7-7-7-7-7-7--|
|--x-x-x-x-x-x-x-x-x-x-x-x-x-x-x-x--|
|--7-7-7-7-7-7-7-7-5-5-5-5-5-5-5-5--|
|-----------------------------------|

Interlude:
                            (Play 3x)
|-----------------------------------|-------------------------------|
|-----------------------------------|-------------------------------|
|o---------------------------------o|-------------------------------|
|o-9~~-9\\-------------------------o|--9~~-9\\----------------------|
|--7~~-7\\--------------------------|--7~~-7\\------/7vvvvvvvvvvvv--|
|--7~~-7\\--------------------------|--7~~-7\\----------------------|

Pre-chorus:
|-------------------------------------------------------------------|
|-------------------------------------------------------------------|
|o-----------------------------------------------------------------o|
|o-2~~~~~~~~~~~~~~~~~~~~~~~~~~~~~~---------------------------------o|
|--0~~~~~~~~~~~~~~~~~~~~~~~~~~~~~~-----2-2-2-2-2-----2-2-2-2-2-2-2--|
|----------------------------------3p0-0-0-0-0-0-3p0-0-0-0-0-0-0-0--|


|-------------------------------------------------------------------|
|-------------------------------------------------------------------|
|-------------------------------------------------------------------|
|--2~~~~~~~~~~~~~~--------------------------------------------------|
|--0~~~~~~~~~~~~~~-x\\\\\\\\\\\\\\-----2-2-2-2-2-----2-2-2-2-2-2-2--|
|------------------x\\\\\\\\\\\\\\-3p0-0-0-0-0-0-3p0-0-0-0-0-0-0-0--|


|-------------------------------------------------------------------|
|-------------------------------------------------------------------|
|-------------------------------------------------------------------|
|--7~~~~~~~~~~~~~~~~~~~~~~~~~~~~~~-7~~~~-7~~~~-7\\------------------|
|--5~~~~~~~~~~~~~~~~~~~~~~~~~~~~~~-5~~~~-5~~~~-5\\------------------|
|--5~~~~~~~~~~~~~~~~~~~~~~~~~~~~~~-5~~~~-5~~~~-5\\------------------|

Chorus:
|-------------------------------------------------------------------|
|-------------------------------------------------------------------|
|--9-9-9-9-9-9-9-9111111111111111112121212121212211414141414141414--|
|--x-x-x-x-x-x-x-x-x-x-x-x-x-x-x-x-x-x-x-x-x-x-x-x-x-x-x-x-x-x-x-x--|
|--7-7-7-7-7-7-7-7-9-9-9-9-9-9-9-910101010101010101212121212121212--|
|-------------------------------------------------------------------|


|-------------------------------------------------------------------|
|-------------------------------------------------------------------|
|---------------------------------12121212121212121111111111111111--|
|------------------------7~~-7-7~~-x-x-x-x-x-x-x-x-x-x-x-x-x-x-x-x--|
|--2~~-2-2-2-2-2-5~~-5-5-5~~-5-5~~1010101010101010-9-9-9-9-9-9-9-9--|
|--0~~-0-0-0-0-0-3~~-3-3-5~~-5-5~~----------------------------------|


|-------------------------------------------------------------------|
|-------------------------------------------------------------------|
|--9-9-9-9-9-9-9-9-7-7-7-7-7-7-7-7----------------------------------|
|--x-x-x-x-x-x-x-x-x-x-x-x-x-x-x-x----------------------------------|
|--7-7-7-7-7-7-7-7-5-5-5-5-5-5-5-5-2~~-2-2-2-2-2-4~~-4-4-5~~-5-5~~--|
|----------------------------------0~~-0-0-0-0-0-2~~-2-2-3~~-3-3~~--|


|-------------------------------------------------------------------|
|-------------------------------------------------------------------|
|--9-9-9-9-9-9-9-9111111111111111112121212121212211414141414141414--|
|--x-x-x-x-x-x-x-x-x-x-x-x-x-x-x-x-x-x-x-x-x-x-x-x-x-x-x-x-x-x-x-x--|
|--7-7-7-7-7-7-7-7-9-9-9-9-9-9-9-910101010101010101212121212121212--|
|-------------------------------------------------------------------|


|-------------------------------------------------------------------|
|-------------------------------------------------------------------|
|---------------------------------12121212121212121111111111111111--|
|------------------------7~~-7-7~~-x-x-x-x-x-x-x-x-x-x-x-x-x-x-x-x--|
|--2~~-2-2-2-2-2-5~~-5-5-5~~-5-5~~1010101010101010-9-9-9-9-9-9-9-9--|
|--0~~-0-0-0-0-0-3~~-3-3-5~~-5-5~~----------------------------------|


|-----------------------------------|
|-----------------------------------|
|--9-9-9-9-9-9-9-9-7-7-7-7-7-7-7-7--|
|--x-x-x-x-x-x-x-x-x-x-x-x-x-x-x-x--|
|--7-7-7-7-7-7-7-7-5-5-5-5-5-5-5-5--|
|-----------------------------------|

Solo:
                            (Play 8x)
|-----------------------------------|
|-----------------------------------|
|o---------------------------------o|
|o---------------------------------o|
|------2-2-2-2-2-----2-2-2-2-2-2-2--|
|--3p0-0-0-0-0-0-3p0-0-0-0-0-0-0-0--|

Ending:
                            (Play 8x)
|-----------------------------------|
|-----------------------------------|
|o---------------------------------o|
|o---------------------------------o|
|------2-2-2-2-2-----2-2-2-2-2-2-2--|
|--3p0-0-0-0-0-0-3p0-0-0-0-0-0-0-0--|





Comments


Popular H.I.M tabs & chords
Beyond Redemption 3 Bass Tabs
The Heartless 2 Bass Tabs
Its All Tears Chords
Acoustic Funeral For Love In Limbo 2 Tabs
Again Tabs
Circle Of Fear (Intro) Tabs
Kiss Of Dawn 1 Tabs
Ode To Solitude 1 Tabs
Sigillium Diabolli Tabs
Fortess Of Tears Ukulele


Song lyrics



↑ Back to top | Tablatures and chords are parodies/interpretations of the original songs. You may use it for private study, scholarship, research or language learning purposes only
© 2014 AZChords.com Contact us | Privacy policy | DMCA | Add/correct tabs | Request tabs | Top 50 tabs