» » »

Buried Alive By Love Bass tabs (ver.2)

Artists:  A B C D E F G H I J K L M N O P Q R S T U V W X Y Z # 

Buried Alive By Love Bass tabs (ver.2)

H.I.M
Rating:
0/5 (0 votes)

Hard to play? Try these video lessons and learn fast.
                                 H.I.M. - Buried Alive By Love

I havn´t found the tab for this song in the internet, so maybe 
I´m the first one who found it out. Most parts should be 
right.

This is the Main Riff:

  1+2+3+4+ 1+2+3+4+ 1+2+3+4+ 1+2+3+4+
G|--------|--------|--------|--------|  At the beginning(4x)
D|5-------|5-------|5-------|5-------|
A|-77--777|-77-7777|-77--777|-77-7777|
E|--------|--------|--------|--------|

Verse I:                   Verse II:
                   
  1+2+3+4+ 1+2+3+4+          1+2+3+4+ 1+2+3+4+
G|--------|--------| (3x)  G|--------|5-55-555| (1x)
D|--------|--------|       D|--------|--------|
A|--------|3-33-333|       A|7-77-777|--------|
E|0-00-000|--------|       E|--------|--------|

Again Verse I(4x). It´s also ok only to play Verse I.

Pre Chorus: 

  1+2+3+4+ 1+2+3+4+ 1+2+3+4+ 1+2+3+4+     
G|--------|--------|--------|--------|    (3x)
D|7-------|--------|5-------|5-------|
A|--------|--------|-77--777|-77-7777|
E|--------|--------|--------|--------|

  1+2+3+4+ 1+2+3+4+ 1+2+3+4+
G|--------|--------|--------|    (1x)
D|--------|--------|--------|
A|5-------|--------|5--5--5-|
E|--------|--------|--------|

Chorus:

  1+2+3+4+ 1+2+3+4+ 1 + 2 + 3 + 4 +  1+2+3+4+ 
G|--------|--------|----------------|--------|  Part I(1x)
D|--------|--------|----------------|77777777|
A|77777777|99999999|1010101010101010|--------|
E|--------|--------|----------------|--------|
 
  1+2+3+4+ 1+2+3+4+
G|--------|--------|    (1x) after Part I 
D|--------|5-55----|
A|7--7--77|----5---|
E|--------|--------|

  1 + 2 + 3 + 4 +  1+2+3+4+ 1+2+3+4+ 1+2+3+4+
G|----------------|--------|--------|--------|   Part II(1x)
D|----------------|--------|--------|--------|
A|1010101010101010|99999999|77777777|55555555|
E|----------------|--------|--------|--------|

  1+2+3+4+ 1+2+3+4+
G|--------|--------| (1x) after Part II
D|--------|--------|
A|7--7--77|9-9910--|
E|--------|--------|

Again Chorus Part I (with the part after) and Part II and then
the Main Riff (4x)

Then a short break for four measures.

Verse I (1x)
Verse II (1x)
Verse I (4x),I think you can also play Verse II.
Pre Chorus 
Chorus

Interlude:

  1+2+3+4+ 1+2+3+4+
G|--------|--------|     (3x)
D|--------|--------|
A|7-7-----|--------|
E|--------|--------|

  1+2+3+4+  1...
G|--------|------- (1x)
D|------05|/17~---
A|7-7--7--|-------
E|--------|-------

Pre Chorus
Then...

  1... 1... 1... 1... 1... 1... 1+2+3+4+
G|----|----|----|----|----|----|--------|
D|----|----|----|----|----|----|--------|
A|5---|----|----|----|5---|----|5--5--5-|
E|----|----|----|----|----|----|--------|

Chorus
Main Riff (till the end)
            
Hard to play? Try these video lessons and learn fast. | Correct




comments powered by Disqus
↑ Back to top | Tablatures and chords are parodies/interpretations of the original songs. You may use it for private study, scholarship, research or language learning purposes only