» » »

H.I.M, Bleed Well Tabs (ver.2)

Artists:  A B C D E F G H I J K L M N O P Q R S T U V W X Y Z # 

Bleed Well Tabs (ver.2)

H.I.M Tabs
Rating:
0/5 (0 votes)
Bleed Well lessons Tabs too difficult? Try these video lessons and learn fast
                
Tuning: Standard (EADGBe)

intro:
e|---------------------------------------------------------------------------|
B|---------------------------------------------------------------------------|
G|---------------------------------------------------------------------------|
D|-------------5h7-------------5\4------------5h7--5--4--5--7--5--7----------|
A|--------5h7-------------5h7-------------5h7------3--2--3--5--3--5----------|
E|--0--0------------0--0------------0--0-----------3--2--3--5--3--5----------|

Verse
e|---------------------------------------------------------------------------|
B|---------------------------------------------------------------------------|
G|---------------------------------------------------------------------------|
D|---------------------------------------------------------------------------|
A|--55555555--5555--5555--22222222--2222--5555-------------------------------|
E|--33333333--3333--2222--00000000--0000--2222-------------------------------|
pm............................................

Bridge
e|---------------------------------------------------------------------------|
B|---------------------------------------------------------------------------|
G|---------------------------------------------------------------------------|
D|--5--5555--7--7777--4--4444--5-xxxx----------------------------------------|
A|--3--3333--5--5555--2--2222--3-xxxx----------------------------------------|
E|---------------------------------------------------------------------------|

Chorus
e|---------------------------------------------------------------------------|
B|---------------------------------------------------------------------------|
G|---------------------------------------------------------------------------|
D|------------22222222------------------------------------55555555--77777777-|
A|--22222222--00000000--44444444--55--5--44--4--22222222--33333333--55555555-|
E|--00000000------------22222222--33--3--22--2--00000000---------------------|
                                  ..     ..
e|---------------------------------------------------------------------------|
B|---------------------------------------------------------------------------|
G|---------------------------------------------------------------------------|
D|---------------------------------------------------------------------------|
A|--0--2-----0---------------------------------------------------------------|
E|--------3------------------------------------------------------------------|

Pre Solo
e|---------------------------------------------------------------------------|
B|---------------------------------------------------------------------------|
G|---------------------------------------------------------------------------|
D|---------------------------------------------7--9--------------------------|
A|---------------------------------------------5--7--------------------------|
E|--0--7h8p7--0--5h7p5--0--3h5p3--0--2h3p2--0--------------------------------|

Sorry, I don't have to solo yet, but I will eventually. 

| /  slide up
| \  slide down
| h  hammer-on
| p  pull-off
| ~  vibrato
| +  harmonic
| x  Mute note
=========================================================
            

comments powered by Disqus
↑ Back to top | H.I.M Tabs for Bleed Well. Lyrics for acoustic guitar and electric guitar. Tablatures and chords are parodies/interpretations of the original songs. You may use it for private study, scholarship, research or language learning purposes only