>
 >
Beyond Redemption 3

Beyond Redemption 3 Bass Tabs

H.I.M - Beyond Redemption 3 chords, tabs, tablatures, lyrics

Guitar lessons | Add/correct | Request | Top 50 tabs Artists:  A B C D E F G H I J K L M N O P Q R S T U V W X Y Z 0-9

Beyond Redemption 3 Bass Tabs – H.I.M

CD, Sheet music, Poster

Do you like Beyond Redemption 3? Share with your friends now
Bass TabsBass Tabs v2Bass Tabs v3Bass Tabs v4ChordsChords v2TabsTabs v2Ukulele
#------------------------------------------------------------------------------##

                          BEYOND REDEMPTION (Bassline)
                              As recorded by H.I.M.
                        (From the 2003 Album LOVE METAL)

Words by Ville Valo

Music by H.I.M.
Arranged by H.I.M.

Gtr I (Eb Ab Db Gb) - 'Untitled'
Gtr II (Eb Ab Db Gb Bb Eb) - 'keyboard'

 Intro
  Q=148
 4/4
  Gtr I
  Wx5
|--------|
|--------|
|--------|
|--------|


    E E E E E E E E   E E E E E E E E   E E E E E E E E   E E E E E E E E
||------------------|-----------------|-----------------|------------------||
||o-----------------|-----------------|-----------------|-----------------o||
||o-4-4-4-4-4-4-4-4-|-----------------|-----------------|-----------------o||
||------------------|-0-0-0-0-0-0-0-0-|-2-2-2-2-2-2-2-2-|-5-5-5-5-7-7-7-7--||


  W          +W
|----------|--------|
|----------|--------|
|-4--------|-(4)----|
|----------|--------|


 Verse
  H    E E E E   +W           H    E E E E   +W
|--------------|------------|--------------|--------|
|--------------|------------|----------2---|--------|
|------2---2-4-|-(4)--------|------2-----4-|-(4)----|
|-5------4-----|------------|-5------4-----|--------|


  H    E E E E   +W           H    +E  Q  E   +H     H
|--------------|------------|---------------|-------------|
|--------------|------------|---------------|-------------|
|------2---2-4-|-(4)--------|---------------|-------------|
|-5------4-----|------------|-2----(2)-4--5-|-(5)----7----|


  H    E E E E   +W           H    E E E E   +W
|--------------|------------|--------------|--------|
|--------------|------------|----------2---|--------|
|------2---2-4-|-(4)--------|------2-----4-|-(4)----|
|-5------4-----|------------|-5------4-----|--------|
|
| Gtr II
| <               <           <               <
| W               W           W               W
|--------------|------------|--------------|--------|
|-7------------|--5---------|-7------------|--5-----|
|--------------|------------|--------------|--------|
|--------------|------------|--------------|--------|
|--------------|------------|--------------|--------|
|--------------|------------|--------------|--------|


  H    E E E E   +W                H    +E  Q  E   +W
|--------------|-----------------|---------------|--------|
|--------------|-----------------|---------------|--------|
|------2---2-4-|-(4)-------------|---------------|--------|
|-5------4-----|-----------------|-2----(2)-4--5-|-(5)----|
|
| <                         <
| W              +H     +E  Q.     W               +W
|--------------|-----------------|---------------|--------|
|-7------------|-(7)----(7)-5----|-2-------------|-(2)----|
|--------------|-----------------|---------------|--------|
|--------------|-----------------|---------------|--------|
|--------------|-----------------|---------------|--------|
|--------------|-----------------|---------------|--------|


   H     +E  Q  E   +H     H
|-----------------|-------------|
|-----------------|-------------|
|-----------------|-------------|
|--2-----(2)-4--5-|-(5)----7----|
|
| +W                +W
|-----------------|-------------|
|-(2)-------------|-(2)---------|
|-----------------|-------------|
|-----------------|-------------|
|-----------------|-------------|
|-----------------|-------------|


 Chorus
  Q  Q  E E +E  E   +E  E +E  E E E E E
|-----------------|---------------------|
|-----------------|---------------------|
|-4--4------------|---------------------|
|-------4-4-(4)-5-|-(5)-5-(5)-7-7-7-7-7-|


  Q  Q  E E +E  E   +E  E +E  E E E E E
|-----------------|----------------------|
|-----------------|----------------------|
|-4--4------------|----------------------|
|-------4-4-(4)-5-|-(5)-5-(5)-0-0-0-0-0--|


  W          W          H    Q.   E   +E  E +E  Q  E E E
|----------|----------|-------------|---------------------|
|----------|----------|-------------|---------------------|
|-4--------|----------|-------------|---------------------|
|----------|-4--------|-5---------7-|-(7)-7-(7)-0--0-0-0--|


   Pre-Verse
    E E E E E E E E   E E E E E E E E   E E E E E E E E   E E E E E E E E
||------------------|-----------------|-----------------|------------------||
||o-----------------|-----------------|-----------------|-----------------o||
||o-4-4-4-4-4-4-4-4-|-----------------|-----------------|-----------------o||
||------------------|-0-0-0-0-0-0-0-0-|-2-2-2-2-2-2-2-2-|-5-5-5-5-7-7-7-7--||


  W          +W
|----------|--------|
|----------|--------|
|-4--------|-(4)----|
|----------|--------|


 Verse
  H    E E E E   +W           H    E E E E   +W           H    E E E E
|--------------|------------|--------------|------------|---------------|
|--------------|------------|----------2---|------------|---------------|
|------2---2-4-|-(4)--------|------2-----4-|-(4)--------|------2---2-4--|
|-5------4-----|------------|-5------4-----|------------|-5------4------|
|
| Gtr II
| <               <           <               <           <
| W               W           W               W           W
|--------------|------------|--------------|------------|---------------|
|-7------------|--5---------|-7------------|--5---------|-7-------------|
|--------------|------------|--------------|------------|---------------|
|--------------|------------|--------------|------------|---------------|
|--------------|------------|--------------|------------|---------------|
|--------------|------------|--------------|------------|---------------|


  +W                H    +E  Q  E   +H     H      H    E E E E   +W
|-----------------|---------------|-------------|--------------|--------|
|-----------------|---------------|-------------|--------------|--------|
|-(4)-------------|---------------|-------------|------2---2-4-|-(4)----|
|-----------------|-2----(2)-4--5-|-(5)----7----|-5------4-----|--------|
|
|            <                                    <               <
| +E  +H     Q.     W               +W            W               W
|-----------------|---------------|-------------|--------------|--------|
|-(7)-(7)----5----|-2-------------|-(2)---------|-7------------|--5-----|
|-----------------|---------------|-------------|--------------|--------|
|-----------------|---------------|-------------|--------------|--------|
|-----------------|---------------|-------------|--------------|--------|
|-----------------|---------------|-------------|--------------|--------|


  H    E E E E   +W           H    E E E E   +W
|--------------|------------|--------------|------------------|
|----------2---|------------|--------------|------------------|
|------2-----4-|-(4)--------|------2---2-4-|-(4)--------------|
|-5------4-----|------------|-5------4-----|------------------|
|
| <               <           <                         <
| W               W           W              +E  +H     Q.
|--------------|------------|--------------|------------------|
|-7------------|--5---------|-7------------|-(7)-(7)----5-----|
|--------------|------------|--------------|------------------|
|--------------|------------|--------------|------------------|
|--------------|------------|--------------|------------------|
|--------------|------------|--------------|------------------|


  H    +E  Q  E   +W            H     +E  Q  E   +Q.   E +H
|---------------|------------|-----------------|----------------|
|---------------|------------|-----------------|----------------|
|---------------|------------|-----------------|----------------|
|-2----(2)-4--5-|-(5)--------|--2-----(2)-4--5-|-(5)---7-(7)----|
|
| W               +W           +W                +W
|---------------|------------|-----------------|----------------|
|-2-------------|-(2)--------|-(2)-------------|-(2)------------|
|---------------|------------|-----------------|----------------|
|---------------|------------|-----------------|----------------|
|---------------|------------|-----------------|----------------|
|---------------|------------|-----------------|----------------|


   Chorus
    Q  Q  E E +E  E   +E  E +E  E E E E E
||------------------|---------------------|
||o-----------------|---------------------|
||o-4--4------------|---------------------|
||--------4-4-(4)-5-|-(5)-5-(5)-7-7-7-7-7-|


  Q  Q  E E +E  E   +E  E +E  E E E E E
|-----------------|---------------------|
|-----------------|---------------------|
|-4--4------------|---------------------|
|-------4-4-(4)-5-|-(5)-5-(5)-0-0-0-0-0-|


  W          W          H    Q.   E   +E  E +E  E +E  E E E
|----------|----------|-------------|-------------------------||
|----------|----------|-------------|------------------------o||
|-4--------|----------|-------------|------------------------o||
|----------|-4--------|-5---------7-|-(7)-7-(7)-0-(0)-0-0-0---||


   Bridge
    E E E E E E E E   E E E E E E E E   E E E E E E E E   E E E E E E E E  3x
||------------------|-----------------|-----------------|------------------||
||o-----------------|-----------------|-----------------|-----------------o||
||o-4-4-4-4-4-4-4-4-|-6-6-6-6-6-6-6-6-|-7-7-7-7-7-7-7-7-|-9-9-9-9-9-9-9-9-o||
||------------------|-----------------|-----------------|------------------||


   E  E  E  E  E  E  E  E    E  E  E  E  E  E  E  E
|-------------------------|-------------------------|
|-------------------------|-------------------------|
|-11-11-11-11-11-11-11-11-|-12-12-12-12-12-12-12-12-|
|-------------------------|-------------------------|


   E  E  E  E  E  E  E  E    E  E  E  E  H
|-------------------------|--------------------|
|-------------------------|--------------------|
|-13-13-13-13-13-13-13-13-|-14-14-14-14-14\----|
|-------------------------|--------------------|


   Guitar Solo
    Q  Q  E E +E  E   +E  E +E  E E E E E
||------------------|---------------------|
||o-----------------|---------------------|
||o-4--4------------|---------------------|
||--------4-4-(4)-5-|-(5)-5-(5)-5-7-7-7-7-|


  Q  Q  E E +E  E   +E  E +E  E E E E E
|-----------------|----------------------||
|-----------------|---------------------o||
|-4--4------------|---------------------o||
|-------4-4-(4)-5-|-(5)-5-(5)-5-7-7-7-7--||


    W          +W           +W           +W
||-----------|------------|------------|---------||
||o----------|------------|------------|--------o||
||o-4--------|-(4)--------|-(4)--------|-(4)----o||
||-----------|------------|------------|---------||


 Chorus
  Wx10
|---------|
|---------|
|---------|
|---------|


    Q  Q  E E +E  E   +E  E +E  E E E E E
||------------------|---------------------|
||o-----------------|---------------------|
||o-4--4------------|---------------------|
||--------4-4-(4)-5-|-(5)-5-(5)-7-7-7-7-7-|


  Q  Q  E E +E  E   +E  E +E  E E E E E
|-----------------|---------------------|
|-----------------|---------------------|
|-4--4------------|---------------------|
|-------4-4-(4)-5-|-(5)-5-(5)-0-0-0-0-0-|


  W          W          H    Q.   E   +E  E +E  E +E  E E E
|----------|----------|-------------|-------------------------||
|----------|----------|-------------|------------------------o||
|-4--------|----------|-------------|------------------------o||
|----------|-4--------|-5---------7-|-(7)-7-(7)-0-(0)-0-0-0---||


   Outro
    E E E E E E E E   E E E E E E E E   E E E E E E E E   E E E E E E E E  4x
||------------------|-----------------|-----------------|------------------||
||o-----------------|-----------------|-----------------|-----------------o||
||o-4-4-4-4-4-4-4-4-|-----------------|-----------------|-----------------o||
||------------------|-0-0-0-0-0-0-0-0-|-2-2-2-2-2-2-2-2-|-5-5-5-5-7-7-7-7--||


  Wx4
|--------*|
|--------*|
|--------*|
|--------*|


Duration Legend
---------------
W - whole; H - half; Q - quarter; E - 8th; S - 16th; T - 32nd; X - 64th; a - acciaccatura
+ - note tied to previous; . - note dotted; .. - note double dotted
Uncapitalized letters represent notes that are staccato (1/2 duration)
Irregular groupings are notated above the duration line
Duration letters will always appear directly above the note/fret number it represents the
duration for.  Duration letters with no fret number below them represent rests.  Multi-
bar rests are notated in the form Wxn, where n is the number of bars to rest for.  Low
melody durations appear below the staff

Tablature Legend
----------------
 h   - hammer-on
 p   - pull-off
 b   - bend
 pb  - pre-bend
 r   - bend release (if no number after the r, then release immediately)
 /\  - slide into or out of (from/to "nowhere")
 s   - legato slide
 S   - shift slide
  - natural harmonic
[n]  - artificial harmonic
n(n) - tapped harmonic
 ~   - vibrato
 tr  - trill
 T   - tap
 TP  - trem. picking
 PM  - palm muting
\n/  - tremolo bar dip; n = amount to dip
 \n  - tremolo bar down
 n/  - tremolo bar up
/n\  - tremolo bar inverted dip
 =   - hold bend; also acts as connecting device for hammers/pulls
 <>  - volume swell (louder/softer)
 x   - on rhythm slash represents muted slash
 o   - on rhythm slash represents single note slash

Misc Legend
-----------
 |  - bar
||  - double bar
||o - repeat start
o|| - repeat end
*|  - double bar (ending)
 :  - bar (freetime)
 $  - Segno
 &  - Coda
Tempo markers -  = BPM(8/16=s8/s16), where s8 = swing 8ths, s16 = swing 16th





Comments


Popular H.I.M tabs & chords
Love You Like I Do 3 Bass Tabs
Gone With The Sin 2 Chords
Pretending 1 Chords
Behind The Crimson Door Intro 2 Tabs
Dont Let It Go Tabs
Endless Dark Intro 1 Tabs
Funeral Of Hearts 2 Tabs
Heartkiller 1 Tabs
The Sacrament 3 Tabs
Dont Close Your Heart Ukulele


Song lyrics



↑ Back to top | Tablatures and chords are parodies/interpretations of the original songs. You may use it for private study, scholarship, research or language learning purposes only
© 2014 AZChords.com Contact us | Privacy policy | DMCA | Add/correct tabs | Request tabs | Top 50 tabs