» » »

Beyond Redemption Bass tabs (ver.2)

Artists:  A B C D E F G H I J K L M N O P Q R S T U V W X Y Z # 

Beyond Redemption Bass tabs (ver.2)

H.I.M
Rating:
0/5 (0 votes)

Tabs too difficult? Try these video lessons and learn fast.
                ----------------------------------------------------------------------------
			     Beyond Redemption - HIM
----------------------------------------------------------------------------


Tuning: standard

Intro: (come in w/ guitar)
G|--------------------------------------------------------------------------|
D|--------------------------------------------------------------------------|
A|-4444444444----------------------------------4~---------------------------|
E|------------0000000000-2222222222-5555-7777-------------------------------|

Verse: (same timing as guitar)
G|--------------------------------------------------------------------------|
D|--------------------------------------------------------------------------|
A|-------4~---------74~---------4~---------------------4~-------74~---------|
E|-4-747------4-74-------4-747-------2-245-7----4-747------4-74-------------|

Prechorus:
G|--------------------------------------------------------------------------|
D|--------------------------------------------------------------------------|
A|--------------------------------------------------------------------------|
E|----2~-----------2-45~----------2~-----2-45-7~----------------------------|

Chorus:
G|--------------------------------------------------------------------------|
D|--------------------------------------------------------------------------|
A|-4444--------------4444---------------4~----------------------------------|
E|-----44/777-999---------44/777-999--------4~--5~--xxx--999-000------------|


Buildup:
G|--------------------------------------------------------------------------|
D|--------------------------------------------------------------------------|
A|-44444444/555555555/777777777/999999999/444444444/55555555/7777777/9999999
E|--------------------------------------------------------------------------

G|--------------------------------------------------------------------------|
D|--------------------------------------------------------------------------|
A|-44444444/5555555/777777777/999999/1010101010//1212121212/13131313/141414-
E|--------------------------------------------------------------------------

Solo Riff: (it's the same as the chorus)
G|--------------------------------------------------------------------------|
D|--------------------------------------------------------------------------|
A|-4444--------------4444-------------------4~~~----------------------------|
E|-----44/777-999---------44/777-999----------------------------------------|

And the outro is the same as the intro, there you go pretty simple song once you get the 
down


| /  slide up
| \  slide down
| h  hammer-on
| p  pull-off
| ~  vibrato
| +  harmonic
| x  Mute note
============================================================================
            
Tabs too difficult? Try these video lessons and learn fast.


comments powered by Disqus
↑ Back to top | Tablatures and chords are parodies/interpretations of the original songs. You may use it for private study, scholarship, research or language learning purposes only