» » »

Beyond Redemption Tabs (ver.1)

Artists:  A B C D E F G H I J K L M N O P Q R S T U V W X Y Z # 

Beyond Redemption Tabs (ver.1)

H.I.M
Rating:
0/5 (0 votes)

Hard to play? Try these video lessons and learn fast.
                HIM Beyond redemption
Love Metal

These are my first self made tabulatures so they may not be completely
correct but if these tabs won´t please you 
make your own. The solo sucks but so what?  


Intro keyboard and two gtr
intro gtr1                                                                                                 end.
|------------------------------------------------------------------------------------------------------| |--3--|
|'----------------------------------------------------------------------------------------------------'| |--4--|
|------------------------------------------------------------------------------------------------------| |--5--|
|----5--5--5--5--5--5--5--5--8--8--8--8--8--8--8--8----------------------------------------------------| |--5--|
|'---3--3--3--3--3--3--3--3--6--6--6--6--6--6--6--6--3--3--3--3--3--3--3--3--6--6--6--6--8--8--8--8---'| |--3--|
|----------------------------------------------------1--1--1--1--1--1--1--1--4--4--4--4--6--6--6--6----| |-----|
     .  .  .  .  .  .  .  .  .  .  .  .  .  .  .  .  .  .  .  .  .  .  .  .  .  .  .  .  .  .  .  .

intro gtr2
|-------------------------------------------------------------------------3----|
|-------------------------------------------------------------------------4----|
|-------------------------------------------------------------------------5----|
|-------1-----5-------1-----8--6--5-----1-----5-------1-----3--5--1--0----5----|
|----3-----3-------3-----3-----------3-----3-------3-----3----------------3----|
|------------------------------------------------------------------------------|

Verse
|----------------------------------------------------------------------------------|
|----------------------------------------------------------------------------------|
|----------------------------------------------------------------------------------|
|----------------------------------1-----------------------------------------------|
|---------1-----1--3---------1--------3---------1-----1--3-------------------------|
|----4-------3----------4-------3----------4-------3----------1---1---3--4----6----|

Verse cont.
|-------------------------------------------------------------------------------------------------|
|-------------------------------------------------------------------------------------------------|
|-------------------------------------------------------------------------------------------------|
|----------------------------------1--------------------------------------------------------------|
|---------1-----1--3---------1--------3---------1-----1--3----------------------------------------|
|----4-------3----------4-------3----------4-------3----------1---1---3--4---1---1---3--4----6----|

Chorus                                slow
|-------------------------| |------------------------|
|'-----------------------'| |------------------------|
|-------------------------| |------------------------|
|----5--------------------| |----5-------------------|
|'---3---5---6---8-------'| |----3----5----6----8----|
|--------3---4---6--------| |---------3----4----6----|

intro
verse
chorus x2
 
Bridge                                                                               x3
|-----------------------------------------------------------------------------------| 
|'---------------------------------------------------------------------------------'| 
|-----------------------------------------------------------------------------------| 
|-----------------------------------------------------------------------------------| 
|'---6--6---6--6--6---8--8---8--8--8---10--10---10--10--10---11--11---11--11--11---'|
|-----------------------------------------------------------------------------------|


|-----------------------------------------------------------------------------------|
|-----------------------------------------------------------------------------------| 
|-----------------------------------------------------------------------------------| 
|----5--5---5--5--5--6---6---6--6--6----7---7----7---7---7----7---7----7---7---7----| 
|----6--6---6--6--6--8---8---8--8--8---10--10---10--10--10---11--11---11--11--11----| 
|-----------------------------------------------------------------------------------|

Solo
   full....................................       ..                                        1/2b    1/2b
|----------------------------------------------------------------------------------------------------------|
|-----/\--/\--/\--/\--/\--/\--/\--/\--/\--/\------/\--11------------------------------------/-------/------|
|----10--10--10--10--10--10--10--10--10--10---8--10-------12--10--8--10--12--10--8-----8---7----5---7------|
|-----------------------------------------------------------------------------------10---------------------|
|----------------------------------------------------------------------------------------------------------|
|----------------------------------------------------------------------------------------------------------|
         full                                                                full................
|-------------------------------------------------------------------------------/\--/\--/\--/\--/\----------------|
|--------/\---------------------------------------------------------13---------14--14--14--14--14---13--11--8--11-|
|----8--10---10--8--12--12--15----------8--10--12--15--17----15--12----12--15-------------------------------------|
|-10----------------------------13--10----------------------------------------------------------------------------|
|-----------------------------------------------------------------------------------------------------------------|
|-----------------------------------------------------------------------------------------------------------------|
                full                                       full            full        full           full
|---------------/\---------------------10h11p10p8-----------/\-----------------------------------------------------|
|13b---13--16--18---16--18--16--15--16-------------11--13--14--13--11--13---/\----------/\-------------/\----------|
|--------------------------------------------------------------------------18---10--8--10--10--8--10--10--10-8---5b|
|------------------------------------------------------------------------------------------------------------------|
|------------------------------------------------------------------------------------------------------------------|
|------------------------------------------------------------------------------------------------------------------|

Chorus x2
Intro
            
Hard to play? Try these video lessons and learn fast. | Correct




comments powered by Disqus
↑ Back to top | Tablatures and chords are parodies/interpretations of the original songs. You may use it for private study, scholarship, research or language learning purposes only