>
 >
Again

Again Guitar Tabs

H.I.M - Again chords, tabs, tablatures, lyrics

Guitar lessons | Add/correct | Request | Top 50 tabs Artists:  A B C D E F G H I J K L M N O P Q R S T U V W X Y Z 0-9

Again Guitar Tabs – H.I.M

CD, Sheet music, Poster

Do you like Again? Share with your friends now
Tabs
Awesome Song!

      INTRO

e ----------------------------------------------|
B ----------------------------------------------|
G ----------------------------------------------|
D -------7/----7/-----7/----5-------3h5p3-------|
A -------7/----7/-----7/----5-3-5-3--------5----|
E -------5/----5/-----5/----3-------------------|

e ----------------------------------------------|
B ----------------------------------------------|
G ----------------------------------------------|
D ----7-7/---7-7/---7-7/----5-------3h5p3-------|
A ----7-7/---7-7/---7-7/----5-3-5-3--------5----|
E ----5-5/---5-5/---5-5/----3-------------------|

 VERSE RIFF 2X play this 1X and then 1x with the singing

e -----------------------------------------------------|
B -----------------------------------------------------|
G -----------------------------------------------------|
D ---5--7-7--7-7-7---5-7-7--7-7-7---5-7-7--7-7-7-------|
A ---5--7-7--7-7-7---5-7-7--7-7-7---5-7-7--7-7-7-------|
E ---3--5-5--5-5-5---3-5-5--5-5-5---3-5-5--5-5-5-------|

e -----------------------------------------------------|
B -----------------------------------------------------|
G -----------------------------------------------------|
D -----5--------3h5p3----------------------------------|
A -----5-3-5-3----------5------------------------------|
E -----3-----------------------------------------------|

e -----------------------------------------------------|
B -----------------------------------------------------|
G -----------------------------------------------------|
D ---5--7-7--7-7-7---5-7-7--7-7-7---5-7-7--7-7-7-------|
A ---5--7-7--7-7-7---5-7-7--7-7-7---5-7-7--7-7-7-------|
E ---3--5-5--5-5-5---3-5-5--5-5-5---3-5-5--5-5-5-------|

e -----------------------------------------------------|
B -----------------------------------------------------|
G -----------------------------------------------------|
D -----5--------3h5p3----------------------------------|
A -----5-3-5-3----------5------------------------------|
E -----3-----------------------------------------------|

     CHORUS
e ----------------------------0--0-----------0---0-----|
B --------------------------0--0------------0-0--------|
G -------------------------0-------0------0--------0---|
D -5--777777777--------5---------------5---------------|
A -5--777777777--------5---------------5---------------|
E -3--555555555--------3---------------3---------------|

e -----------------------------------------------------|
B -----------------------------------------------------|
G -----------------------------------------------------|
D -5--777777777--------5---------3h5p3-----------------|
A -5--777777777--------5--3-5-3----------5-------------|
E -3--555555555--------3-------------------------------|

    VERSE
e -----------------------------------------------------|
B -----------------------------------------------------|
G -----------------------------------------------------|
D ---5--7-7--7-7-7---5-7-7--7-7-7---5-7-7--7-7-7-------|
A ---5--7-7--7-7-7---5-7-7--7-7-7---5-7-7--7-7-7-------|
E ---3--5-5--5-5-5---3-5-5--5-5-5---3-5-5--5-5-5-------|

e -----------------------------------------------------|
B -----------------------------------------------------|
G -----------------------------------------------------|
D -----5--------3h5p3----------------------------------|
A -----5-3-5-3----------5------------------------------|
E -----3-----------------------------------------------|

e -----------------------------------------------------|
B -----------------------------------------------------|
G -----------------------------------------------------|
D ---5--7-7--7-7-7---5-7-7--7-7-7---5-7-7--7-7-7-------|
A ---5--7-7--7-7-7---5-7-7--7-7-7---5-7-7--7-7-7-------|
E ---3--5-5--5-5-5---3-5-5--5-5-5---3-5-5--5-5-5-------|

e -----------------------------------------------------|
B -----------------------------------------------------|
G -----------------------------------------------------|
D -----5--------3h5p3----------------------------------|
A -----5-3-5-3----------5------------------------------|
E -----3-----------------------------------------------|

    CHORUS

e ----------------------------0--0-----------0---0-----|
B --------------------------0--0------------0-0--------|
G -------------------------0-------0------0--------0---|
D -5--777777777--------5---------------5---------------|
A -5--777777777--------5---------------5---------------|
E -3--555555555--------3---------------3---------------|

e ----------------------------0--0-----------0---0-----|
B --------------------------0--0------------0-0--------|
G -------------------------0-------0------0--------0---|
D -5--777777777--------5---------------5---------------|
A -5--777777777--------5---------------5---------------|
E -3--555555555--------3---------------3---------------|

e ----------------------------0--0-----------0---0-----|
B --------------------------0--0------------0-0--------|
G -------------------------0-------0------0--------0---|
D -5--777777777--------5---------------5---------------|
A -5--777777777--------5---------------5---------------|
E -3--555555555--------3---------------3---------------|

e -----------------------------------------------------|
B -----------------------------------------------------|
G -----------------------------------------------------|
D -5--777777777-----5-------3h5p3------5-------3h5p3---|
A -5--777777777-----5--3-5-3------5----5-3-5-3-------5-|
E -3--555555555-----3------------------3---------------|

      BRIDGE (not sure bout this)
e ------------------------------------------------------------------|
B ------------------------------------------------------------------|
G -9-9-12-12-14--9-9-12-12-14--9-9-12-12-14--12---------10h12p10----|
D -X-X--X--X--X--X-X--X--X--X--X-X--X--X--X--12-10-12-10--------12--|
A -7-7-10-10-12--7-7-10-10-12--7-7-10-10-12--10---------------------|
E ------------------------------------------------------------------|

e ------------------------------------------------------------------|
B ------------------------------------------------------------------|
G -9-9-12-12-14--9-9-12-12-14--9-9-12-12-14--12---------10h12p10----|
D -X-X--X--X--X--X-X--X--X--X--X-X--X--X--X--12-10-12-10--------12--|
A -7-7-10-10-12--7-7-10-10-12--7-7-10-10-12--10---------------------|
E ------------------------------------------------------------------|

e ---------------------------------------------------------|
B ---------------------------------------------------------|
G -12-12-10-10-8-8-5--12-12-10-10-8-8-5--12-12-10-10-8-8-5-|
D --X-X--X---X-X-X-X--X--X--X--X--X-X-X--X--X--X--X--X-X-X-|
A -10-10-8--8--6-6-3--10-10--8--8-6-6-3--10-10-8--8--6-6-3-|
E ---------------------------------------------------------|

e -----------------------------------------------------|
B -----------------------------------------------------|
G -12-12-10-10-8-8---12-----------10h12p10-------------|
D --X--X--X--X-X-X---12--10-12-10------------12--------|
A -10-10-8--8--6-6---10--------------------------------|
E -----------------------------------------------------|

e ---------------------------------------------------------|
B ---------------------------------------------------------|
G -12-12-10-10-8-8-5--12-12-10-10-8-8-5--12-12-10-10-8-8-5-|
D --X-X--X---X-X-X-X--X--X--X--X--X-X-X--X--X--X--X--X-X-X-|
A -10-10-8--8--6-6-3--10-10--8--8-6-6-3--10-10-8--8--6-6-3-|
E ---------------------------------------------------------|

e -----------------------------------------------------|
B -----------------------------------------------------|
G -12-12-10-10-8-8---12-----------10h12p10-------------|
D --X--X--X--X-X-X---12--10-12-10------------12--------|
A -10-10-8--8--6-6---10--------------------------------|
E -----------------------------------------------------|

    CHORUS
e ----------------------------0--0-----------0---0-----|
B --------------------------0--0------------0-0--------|
G -------------------------0-------0------0--------0---|
D -5--777777777--------5---------------5---------------|
A -5--777777777--------5---------------5---------------|
E -3--555555555--------3---------------3---------------|

e ----------------------------0--0-----------0---0-----|
B --------------------------0--0------------0-0--------|
G -------------------------0-------0------0--------0---|
D -5--777777777--------5---------------5---------------|
A -5--777777777--------5---------------5---------------|
E -3--555555555--------3---------------3---------------|

e ----------------------------0--0-----------0---0-----|
B --------------------------0--0------------0-0--------|
G -------------------------0-------0------0--------0---|
D -5--777777777--------5---------------5---------------|
A -5--777777777--------5---------------5---------------|
E -3--555555555--------3---------------3---------------|

e -----------------------------------------------------|
B -----------------------------------------------------|
G -----------------------------------------------------|
D -5--777777777-----5-------3h5p3------5-------3h5p3---|
A -5--777777777-----5--3-5-3------5----5-3-5-3-------5-|
E -3--555555555-----3------------------3---------------|

    OUTRO
e ----------------------------------------------|
B ----------------------------------------------|
G ----------------------------------------------|
D -------7/----7/-----7/----5-------3h5p3-------|
A -------7/----7/-----7/----5-3-5-3--------5----|
E -------5/----5/-----5/----3-------------------|

e ----------------------------------------------|
B ----------------------------------------------|
G ----------------------------------------------|
D ----7-7/---7-7/---7-7/----5-------3h5p3-------|
A ----7-7/---7-7/---7-7/----5-3-5-3--------5----|
E ----5-5/---5-5/---5-5/----3-------------------|

e -----------------------------------------------|
B -----------------------------------------------|
G -----------------------------------------------|
D ---5------3h5p3---------5-------3h5p3-------7--|
A ---5-3-5-3------5-------5-3-5-3--------5----7--|
E ---3--------------------3-------------------5--|





Comments


Popular H.I.M tabs & chords
Poison Girl 4 Bass Tabs
The Sacrament Bass Tabs
Behind The Crimson Door Chords
Funeral Of Hearts 2 Chords
Funeral Of Hearts Chords Chords
The Foreboding Sense Of Impending Happiness Chords
Endless Dark Tabs
Killing Loneliness 1 Tabs
Razorblade Kiss (Solo Ver 2) Tabs
Endless Dark Ukulele


Song lyrics



↑ Back to top | Tablatures and chords are parodies/interpretations of the original songs. You may use it for private study, scholarship, research or language learning purposes only
© 2014 AZChords.com Contact us | Privacy policy | DMCA | Add/correct tabs | Request tabs | Top 50 tabs