» » »

Hillsongs, You Are More Tabs (ver.1)

Artists:  A B C D E F G H I J K L M N O P Q R S T U V W X Y Z # 

You Are More Tabs (ver.1)

Hillsongs Tabs
Rating:
0/5 (0 votes)
Hard to play? Try these video lessons and learn fast.
                Lead Guitar

Use Dotted 8th note delay - 110bpm (409ms)

NOTE: Numbers in parentheses () below the tabs indicate how many time each chord shape is played.

NOTE: I'm not 100% sure on all the chord shapes, but they sound right. Comments/
corrections welcome

Intro:

e-----------------------------------------------|
b-12-11----------12-11----------12-11---------7-|
g----------12-------------12------------------6-|
d-------14-------------14-------------12-14---8-|
a-----------------------------------------------|
E-----------------------------------------------|

Verse: (Something like this - this isn't exact)

e---------------------------|
b-----9---9-------9---9-----|
g---8-------8---8-------8---|
d-9-----9-----9-----9-----9-|
a---------------------------|
E---------------------------|

e---------------------------|
b-----7---7-------7---7-----|
g---8-------8---8-------8---|
d-9-----9-----9-----9-----9-|
a---------------------------|
E---------------------------|

e---------------------------|
b-----9---9-------7---7-----|
g---9-------9---8-------8---|
d-9-----9-----9-----9-----9-|
a---------------------------|
E---------------------------|

e----------------------------|
b-----7-------7------7---7---|
g---6-------6------6---6---6-|
d-8-------9------8-----------|
a----------------------------|
E----------------------------|

Repeat 1x

e---------------------------------------|
b-9---7---(12)-7---2---2----9---7----11-|
g-9---8----13--8---3---4----9---8----11-|
d-11--9----14--9---4---4----11--9----11-|
a---------------------------------------|
E---------------------------------------|
 (8) (24) (8) (8) (4) (12) (8) (16) (8)


[                       Something like this                           ]
e------------------------------------------------------------------------|
b-----7---7-------7---7-----------11----12-------11-------11-------11-12-|
b---9-------9---9-------9------11----------11-------11-------11-------11-|
d-9-----9-----9-----9-----9s11-------11-------11-------11-------11----9--|
a------------------------------------------------------------------------|
E------------------------------------------------------------------------|


INSTRUMENTAL BREAK - Keys Only


You come back in before the singing starts (When she says Jesus on the recording)

e-----------------------------------------------------|
b----------------------------------------------9---11-|
g-8---11----11--11--9---6---8----11---11---11--9---11-|
d-9---11----9---8---6---4---9----11---9----11--9---11-|
a-----------------------------------------------------|
e-----------------------------------------------------|
(16) (16) (12) (4) (8) (8) (16) (16) (12) (4) (8) (8)


e----------------------------------------------------------------|
b-12---11---12---11--9---11--12--12--11--12---9---12--11--12--14-|
g-11---11---11---11--9---11--9---11--11--11---9---11--11--11--11-|
d-9----9----9----9---x---x---9---9---9---9----x---9---11--11--11-|
a--------------------7---9--------------------7------------------|
E----------------------------------------------------------------|
 (16) (16) (12) (4) (8) (8) (8) (6) (2) (16) (8) (8) (4) (4) (8)

e------------------------x-------11--9---11---12--11---------------x-|
b-12--12---11--9----11---x---12--12--12--12---12--12--11--12--14---x-|
g-9---11---11--9----11---x---9---11--11--11---11--11--11--11--11---x-|
d-9---9----9---x----x----x---9------------------------11--11--11---x-|
a--------------7----9----x-----------------------------------------x-|
E------------------------x-----------------------------------------x-|
 (8) (16) (8) (16) (12) (4) (8) (6) (2) (16) (8) (8) (3) (3) (10) (2)

e-----11--9---11-----------------------x-------|
b-12--12--12--12--14--12---14--12--11--x---12~-|
g-9---11--11--11--11--9----11--11--11--x---11~-|
d-9---------------11--9----11--11--11--x---9~~-|
a--------------------------------------x-------|
E--------------------------------------x-------|
 (8) (6) (2) (8) (8) (16) (5) (3) (7) (1) (1)
            

comments powered by Disqus
↑ Back to top | Hillsongs Tabs for You Are More. Lyrics for acoustic guitar and electric guitar. Tablatures and chords are parodies/interpretations of the original songs. You may use it for private study, scholarship, research or language learning purposes only