» » »

Hillsongs, With Us Tabs (ver.2)

Artists:  A B C D E F G H I J K L M N O P Q R S T U V W X Y Z # 

With Us Tabs (ver.2)

Hillsongs Tabs
 Rating:
4/5 (4 votes)
With Us lessons Tabs too difficult? Try these video lessons and learn fast
                INTRO

-------14----------15--14------14----------|
---12------10--12----------12------10--12--|
-------------------------------------------|   x2
-------------------------------------------|
-------------------------------------------|
-------------------------------------------|



VERSE

Bm    G     D    A
-------3-----------|
-------3-----------|
-------4---7-------|
---9---5---7---7---|
---9---5---5---7---|
---7---3-------5---|



PRE-CHORUS

--------------------------------------------------|
--------10--8-----10--8------7--5-----------------|
-----7--------------------------------7--6--------|
--9------------9---------7---------7--------------|
--------------------------------------------------|
--------------------------------------------------|


CHORUS

D G  Bm G


BRIDGE

--7--9-10--15-14-17--|
---------------------|
---------------------| x2
---------------------|
---------------------|
---------------------|

      2:53                    Start: 3:07
-----7-----7-----10-----9----------------9--10--9------|
---8-----8-----8------8------10/7--10--12--------------|
-7-----7-----7------9----------------------------------|
-------------------------------------------------------|
-------------------------------------------------------|
-------------------------------------------------------|
            
Submit corrections

comments powered by Disqus
↑ Back to top | Hillsongs Tabs for With Us. Lyrics for acoustic guitar and electric guitar. Tablatures and chords are parodies/interpretations of the original songs. You may use it for private study, scholarship, research or language learning purposes only