>
 >
With Everything

With Everything Guitar Tabs

Hillsongs - With Everything chords, tabs, tablatures, lyrics

Guitar lessons | Add/correct | Request | Top 50 tabs Artists:  A B C D E F G H I J K L M N O P Q R S T U V W X Y Z 0-9

With Everything Guitar Tabs – Hillsongs

CD, Sheet music, Poster

Do you like With Everything? Share with your friends now
ChordsChords v2Chords v3Chords v4Tabs
-------------------------------------------------------------------------------
                             WITH EVERYTHING - Hillsong United
-------------------------------------------------------------------------------

Tuning:Standard

I have to say this is the first tab I've ever made 
and it goes through 100% to song for me. 
If I made a mistake though correct me if I'm wrong, 
otherwise it's beginners luck :)

Acoustic Guitar
e|----------------------------------------------------------|
B|----------------------------------------------------------|
G|-------8-----8--------8-----8--------8-----8-------6----6-|
D|-----9---9----------9---9----------9---9---------7---7----|
A|---9-------9------9-------9------9-------9-----7-------7--|
E|-7-------------(7)------------(7)------------5------------|

e|----------------------------------------------------------|
B|----------------------------------------------------------|
G|-------8-----8--------8-----8--------8-----8-------11--9--|
D|-----9---9----------9---9----------9---9---------9--------|
A|---9-------9------9-------9------9-------9-----9----------|
E|-7-------------(7)------------(7)------------7------------|

Electric Guitar(Quiet Thrill)
NOTE: Listen to song to play notes as many times as necessary
e|-----------------------------------------------------------|
B|-(12)/-14/-16/-17/-16/-12/-14/-16/-17/-14/-16/-12/-14/-12/-|
G|-----------------------------------------------------------|
D|-----------------------------------------------------------|
A|-----------------------------------------------------------|
E|-----------------------------------------------------------|

Electric Guitar Thrill Continued
"Open our Eyes"
e|-------------------------------------------------------------|
B|-12/-11/-12/-11/-12/-14/-16/-17/-12/-14/-12/-14/-16/-14/-12/-|
G|-------------------------------------------------------------|
D|-------------------------------------------------------------|
A|-------------------------------------------------------------|
E|-------------------------------------------------------------|

"So let hope, rise" (Repeat once)
e|-4-----0-0---2----2-2---|
B|-4-4---0--0--4-4--2--2--|
G|-4--4--1-----4--4-3-----|
D|-6-----2-----4----4-----|
A|-6-----2-----2----4-----|
E|-4-----0-----2----2-----|

"Jesus our God"
e|-0-0-0--4-4-4--2-2-2--2-2-2--0-0-0--0-0-0--2-2-2--2-2-2--|
B|-0-0-0--4-4-4--2-2-2--2-2-2--0-0-0--0-0-0--2-2-2--2-2-2--|
G|-1-1-1--4-4-4--3-3-3--3-3-3--1-1-1--1-1-1--3-3-3--3-3-3--|
D|-2-2-2--6-6-6--4-4-4--4-4-4--2-2-2--2-2-2--4-4-4--4-4-4--|
A|-2-2-2--6-6-6--4-4-4--4-4-4--2-2-2--2-2-2--4-4-4--4-4-4--|
E|-0-0-0--4-4-4--2-2-2--2-2-2--0-0-0--0-0-0--2-2-2--2-2-2--|

"God of all days"
e|-2-2-2--2-2-2--2-2-2--2-2-2--4-4-4--4-4-4--4-4-4---|
B|-4-4-4--4-4-4--4-4-4--2-2-2--4-4-4--4-4-4--4-4-4---|
G|-4-4-4--4-4-4--4-4-4--3-3-3--4-4-4--4-4-4--4-4-4---|
D|-4-4-4--4-4-4--4-4-4--4-4-4--6-6-6--6-6-6--6-6-6---|
A|-2-2-2--2-2-2--2-2-2--4-4-4--6-6-6--6-6-6--6-6-6---|
E|----------------------2-2-2--4-4-4--4-4-4--4-4-4---|

"Oh the majesty"
e|-0-0-0--2-2-2--2-2-2--2-2-2--2-2-2--4-4-4--4-4-4--4-4-4--4-4-4--|
B|-0-0-0--4-4-4--4-4-4--4-4-4--2-2-2--4-4-4--4-4-4--4-4-4--4-4-4--|
G|-1-1-1--4-4-4--4-4-4--4-4-4--3-3-3--4-4-4--4-4-4--4-4-4--4-4-4--|
D|-2-2-2--4-4-4--4-4-4--4-4-4--4-4-4--6-6-6--6-6-6--6-6-6--6-6-6--|
A|-2-2-2--2-2-2--2-2-2--2-2-2--4-4-4--6-6-6--6-6-6--6-6-6--6-6-6--|
E|-0-0-0-----------------------2-2-2--4-4-4--4-4-4--4-4-4--4-4-4--|

"Let hope rise"                       Repeat this     Altenate version I cooked up 
e|-0-0-0--4-4-4--2-2-2--2-2-2--|    e|------------|    e|------------------11---|
B|-0-0-0--4-4-4--4-4-4--2-2-2--|    B|-11-12-11-9-|    B|-11-12-14-12-11-12--12-|
G|-1-1-1--4-4-4--4-4-4--3-3-3--| OR G|------------| OR G|-----------------------|
D|-2-2-2--6-6-6--4-4-4--4-4-4--|    D|------------|    D|-----------------------|
A|-2-2-2--6-6-6--2-2-2--4-4-4--|    A|------------|    A|-----------------------|
E|-0-0-0--4-4-4---------2-2-2--|    E|------------|    E|-----------------------|
                                                            Let this last
"Jesus our God"                                             chord(E)ring*
e|-0-0-0--4-4-4--2-2-2--2-2-2--0-0-0--0-0-0--2-2-2--2-2-2--| e|-0-|*
B|-0-0-0--4-4-4--2-2-2--2-2-2--0-0-0--0-0-0--2-2-2--2-2-2--| B|-0-|
G|-1-1-1--4-4-4--3-3-3--3-3-3--1-1-1--1-1-1--3-3-3--3-3-3--| G|-1-|
D|-2-2-2--6-6-6--4-4-4--4-4-4--2-2-2--2-2-2--4-4-4--4-4-4--| D|-2-|
A|-2-2-2--6-6-6--4-4-4--4-4-4--2-2-2--2-2-2--4-4-4--4-4-4--| A|-2-|
E|-0-0-0--4-4-4--2-2-2--2-2-2--0-0-0--0-0-0--2-2-2--2-2-2--| E|-2-|


++++++++++++++++++++++++++

*Piano Part Transposed*
**NOTE**Play first time around
(Sorry I'm getting lazy to add all the proper amount of notes needed to play here)
e|-----------------------|
B|--7-9-4-2-4-7-2-5-4----|
G|-----------------------|
D|-------4-4-4-4-4-4-4---|
A|---9-9-----------------|
E|-----------------------|
 
 The part below repeats often            Neat piece to add-on
e|------------------------------------| e|---------------------|[then continue with]
B|--7-7-9-9-7-7-4-4-7-7-2-2-5-5-4-4---| B|--7-7-9-9-11-11-12-4-|[     the rest     ]
G|------------------------------------| G|----------------------|
D|---------------4-4-4-4-4-4-4-4-4-4--| D|-------------------4--|
A|---9-9-9-9-9-9----------------------| A|---9-9-9-9-9-9-9-9----|
E|------------------------------------| E|----------------------|

++++++++++++++++++++++++++++++


Electric Guitar Thrill
e|-------------------------------------------------------------------------|
B|-12/-11/-12/-14/-16/-12/-11/-12/-14/-12/-11/-12/-11/-12/-14/-16/-11/-12/-|
G|-------------------------------------------------------------------------|
D|-------------------------------------------------------------------------|
A|-------------------------------------------------------------------------|
E|-------------------------------------------------------------------------|

"Our Hearts they cry" and Outro      Ending
e|-0-0-0--4-4-4--2-2-2--2-2-2--|     e|-0-|
B|-0-0-0--4-4-4--4-4-4--2-2-2--|     B|-0-|
G|-1-1-1--4-4-4--4-4-4--3-3-3--|     G|-1-|
D|-2-2-2--6-6-6--4-4-4--4-4-4--|     D|-2-|
A|-2-2-2--6-6-6--2-2-2--4-4-4--|     A|-2-|
E|-0-0-0--4-4-4---------2-2-2--|     E|-0-|





Comments


Popular Hillsongs tabs & chords
430 Heer Ik Prijs Uw Grote Naam 1 Chords
All In All Chords
Better Is One Day Chords
I Surrender To You Chords
Inside Out 1 Chords
Kingdom Come Chords
One Thing Remains Chords
Open My Eyes Chords
This Is The Air I Breathe Chords
Everyday Intro Tabs


Song lyrics



↑ Back to top | Tablatures and chords are parodies/interpretations of the original songs. You may use it for private study, scholarship, research or language learning purposes only
© 2014 AZChords.com Contact us | Privacy policy | DMCA | Add/correct tabs | Request tabs | Top 50 tabs