» » »

What The World Will Never Take Tabs (ver.5)

Artists:  A B C D E F G H I J K L M N O P Q R S T U V W X Y Z # 

What The World Will Never Take Tabs (ver.5)

Hillsongs
Rating:
0/5 (0 votes)

Hard to play? Try these video lessons and learn fast.
                WHAT THE WORLD WILL NEVER TAKE
HILLSONG from the album “GOD HE REIGNS”
Track 5 Disc 2
Guitar 1: Acoustic Guitar
Guitar 2: Electric Guitar
Tuning: Standard

It’s not accurate but it can help for P&W Team Guitar Player
As a reference, I’m just doin’ cause I Love Jesus…..

INTRO:
 A
|------------------------------------------------------------|
|------------------------------------------------------------|
|------------------------------------------------------------|
|--2--2---7--7--7--7--6--6—6/7--2--2---7--7--7--7--6--6—6/7--|
|--0--0-------------------------0--0-------------------------|
|------------------------------------------------------------|
 D
|------------------------------------------------------------|
|------------------------------------------------------------|
|--2--2-------------------------2--2-------------------------|
|--0--0---7--7--7--7--6--6—6/7--0--0--7--7--7--7--6--6—6/7---|
|------------------------------------------------------------|
|------------------------------------------------------------|
 A
|------------------------------------------------------------|
|------------------------------------------------------------|
|------------------------------------------------------------|
|--2--2---7--7--7--7--6--6—6/7--2--2---7--7--7--7--6--6—6/7--|
|--0--0-------------------------0--0-------------------------|
|------------------------------------------------------------|
 D
|------------------------------------------------------------|
|------------------------------------------------------------|
|--2--2-------------------------2--2-------------------------|
|--0--0---7--7--7--7--6--6—6/7--0--0--7--7--7--7--6--6—6/7---|
|------------------------------------------------------------|
|------------------------------------------------------------|
 VERSE:
  A
|------------------------------------------------------------|
|------------------------------------------------------------|
|------------------------------------------------------------|
|--2--2---7--7--7--7--6--6—6/7--2--2---7--7--7--7--6--6—6/7--|
|--0--0-------------------------0--0-------------------------|
|------------------------------------------------------------|
  With all I’m holding inside, with all my hopes and desires
  D
|------------------------------------------------------------|
|------------------------------------------------------------|
|--2--2-------------------------2--2-------------------------|
|--0--0---7--7--7--7--6--6—6/7--0--0--7--7--7--7--6--6—6/7---|
|------------------------------------------------------------|
|------------------------------------------------------------|
  And all the dreams that I’m dreamt
   A
|------------------------------------------------------------|
|------------------------------------------------------------|
|------------------------------------------------------------|
|--2--2---7--7--7--7--6--6—6/7--2--2---7--7--7--7--6--6—6/7--|
|--0--0-------------------------0--0-------------------------|
|------------------------------------------------------------|
 With all I’m hoping to be and all that the world will bring
  D
|------------------------------------------------------------|
|------------------------------------------------------------|
|--2--2-------------------------2--2-------------------------|
|--0--0---7--7--7--7--6--6—6/7--0--0--7--7--7--7--6--6—6/7---|
|------------------------------------------------------------|
|------------------------------------------------------------|
  And all that fails to compare
  Dmaj7 F#m        B5         Dmaj7
|------------------------------------------------------------|
|------------------------------------------------------------|
|--4--6--6--4--6--6--4--6--4--6—6b7r6------------------------|
|------------------------------------------------------------|
|------------------------------------------------------------|
|------------------------------------------------------------|
  You say You want all of me
  F#m        B5         Dmaj7       A     B5
|------------------------------------------------------------|
|------------------------------------------------------------|
|--4--6--6--4--6--6--4--6--4--6—6b7r6------------------------|
|------------------------------------------------------------|
|------------------------------------------------------------|
|------------------------------------------------------------|
CHORUS:
   A                                     D
|------------------------------------------------------------|
|---------------------------------------7--7--7--7--7--7-----|
|---6---6---6---6---6---6---6---6---6---7--7--7--7--7--7-----|
|---7---7---7---7---7---7---7---7---7---7--7--7--7--7--7-----|
|---7---7---7---7---7---7---7---7---7---5--5--5--5--5--5-----|
|---5---5---5---5---5---5---5---5---5------------------------|
  I’ got a Savior and He’s living in me…     Whoaa…
   F#m           Bsus4    D          
|---9--9--9--9--2--2--2--2--5--5--5--5-----------------------|
|--10-10-10-10--5--5--5--5--7--7--7--7-----------------------|
|--11-11-11-11--4--4--4--4--7--7--7--7-----------------------|
|--11-11-11-11--4--4--4--4--7--7--7--7-----------------------|
|---9--9--9--9--2--2--2--2--5--5--5--5-----------------------|
|------------------------------------------------------------|
  I wanna know, I wanna know You today
   A                                     
|------------------------------------------------------------|
|------------------------------------------------------------|
|---6---6---6---6---6---6---6---6---6---6--6—-6--------------|
|---7---7---7---7---7---7---7---7---7---7--7--7--------------|
|---7---7---7---7---7---7---7---7---7---7--7—-7--------------|
|---5---5---5---5---5---5---5---5---5---5--5—-5--------------|
  You’re the best thing that has happened to me
    F#m 
|---14---14---14---14---14---14---14---14--------------------|
|---10---10---10---10---10---10---10---10--------------------|
|---11---11---11---11---11---11---11---11--------------------|
|------------------------------------------------------------|
|------------------------------------------------------------|
|------------------------------------------------------------|
  And the world will never take 
     Bsus4                 D
|----7---7---7--7--7----5---5---5---5------------------------|
|----7---7---7--7--7----7---7---7---7------------------------|
|----8---8---8--8--8----7---7---7---7------------------------|
|-----------------------7---7---7---7------------------------|
|------------------------------------------------------------|
|------------------------------------------------------------|
  The world will never take You away
INTRO 2:
 A
|------------------------------------------------------------|
|------------------------------------------------------------|
|------------------------------------------------------------|
|--2--2---7--7--7--7--6--6—6/7--2--2---7--7--7--7--6--6—6/7--|
|--0--0-------------------------0--0-------------------------|
|------------------------------------------------------------|
 D                                      N.H.
|------------------------------------------------------------|
|---------------------------------------------7--------------|
|--2--2-------------------------2--2-------7-----7-----------|
|--0--0---7--7--7--7--6--6—6/7--0--0----7-----------7--------|
|------------------------------------------------------------|
|------------------------------------------------------------| 
BACK TO VERSE:
THEN CHORUS 2X:
INSTRUMENTAL:(not so sure with the ad lib here….)
     A5
|------------------------------------------------------------|
|---14---------14------------------------------------14------|
|---16b18r16---16b18r16---16--14------------14--16--16b18r16-|
|---------------------------------16\--16--------------------|
|------------------------------------------------------------|
|------------------------------------------------------------|

                                                       N.H.
|------------------------------------------------------------|
|--14---------17---14---------17---------------------------4-|
|--16b18r16--------16b18r16--------16b18r16---14---16----4---|
|------------------------------------------------------4-----|
|------------------------------------------------------------|
|------------------------------------------------------------|
    F#m           F#m(maj7)
|---14-------------------17--14--17--------------------------|
|---17b18r17---14—17b18-------------17-14--------------------|
|-----------------------------------------16-14--14-16-------|
|------------------------------------------------------16-14-|
|------------------------------------------------------------|
|------------------------------------------------------------|
                A                   B 
|------------------------------------------------------------|
|------------------------------------------------------------|
|---------------14--14--14--14-----/16--16--16--16--16--16---|
|---------------14--14--14--14-------------------------------|
|--16--14--12------------------------------------------------|
|------------------------------------------------------------|


|--------------------------/14--14--14--14--14--14--/16--16--|
|-/16--16--16--16--16--16------------------------------------|
|------------------------------------------------------------|
|------------------------------------------------------------|
|------------------------------------------------------------|
|------------------------------------------------------------|


|-16--16--16--16--17--17--17--17--17--17--19--19--19--19--21-|
|------------------------------------------------------------|
|------------------------------------------------------------|
|------------------------------------------------------------|
|------------------------------------------------------------|
|------------------------------------------------------------|
REPEAT CHORUS 2X:
CODA:
    A           D           A
|------------------------------------------------------------|
|---2--2--2--2--7--7--7--7--2--2--2--2-----------------------|
|---2--2--2--2--7--7--7--7--2--2--2--2-----------------------|
|---2--2--2--2--7--7--7--7--2--2—-2--2-----------------------|
|---0--0--0--0--5--5--5--5--0--0--0—-0-----------------------|
|------------------------------------------------------------|
  No could ever take You away,  No one
    A           D           A
|------------------------------------------------------------|
|---2--2--2--2--7--7--7--7--2--2--2--2-----------------------|
|---2--2--2--2--7--7--7--7--2--2--2--2-----------------------|
|---2--2--2--2--7--7--7--7--2--2—-2--2-----------------------|
|---0--0--0--0--5--5--5--5--0--0--0—-0-----------------------|
|------------------------------------------------------------|
  No could ever take You away,  No one
    A           D           A
|------------------------------------------------------------|
|---2--2--2--2--7--7--7--7--2--------------------------------|
|---2--2--2--2--7--7--7--7--2--------------------------------|
|---2--2--2--2--7--7--7--7--2--------------------------------|
|---0--0--0--0--5--5--5--5--0--------------------------------|
|------------------------------------------------------------|
  No could ever take You away.

God Bless!
SWITCHBLADE ROCKS!
Patrick Ray and Ivanna Marie….       
            
Hard to play? Try these video lessons and learn fast. | Correct




comments powered by Disqus
↑ Back to top | Tablatures and chords are parodies/interpretations of the original songs. You may use it for private study, scholarship, research or language learning purposes only