» » »

Through It All Tabs (ver.2)

Artists:  A B C D E F G H I J K L M N O P Q R S T U V W X Y Z # 

Through It All Tabs (ver.2)

Hillsongs
Rating:
0/5 (0 votes)

Hard to play? Try these video lessons and learn fast.
                THROUGH IT ALL
	Special thanks to Chrisson Bordon for his contributions in the intro part...
The intro part is a collaboration of our two different versions.
I personally dedicate this song to all of my classmates, especially Joe Ferrancullo, Erwin Layug,
Alexis Mojica, Jayson Lumbre, Ryan Reyes, Arsenio Zamora, Angelo Guinto, and Robin Seperidad..
I also dedicate this song to all Brightwats students and teachers,..
This song had been one of my favorite songs so I decided to make a tab of it,.
	Glory to God!!!


Tuning: Standard
Intro:
     G               Em                     CM7        Dsus-D
e-------------0--------------------------------------0---3----2-|         
b-1-----0-----------------------3---------0---------------------|          
g-----0---------0---------0----------0--------0-2---------------| (2x)	  
d---0-----------------2/4----4-----4---0----2------2---0-0----0-|
a-----------------------------------------3---------------------|
e-3---------3------0--------------------------------------------|
		The last part should be pluck on this way.
					e------------0---3----2-|
					b--------------------3--|
					g------------------2----|
					d----------2---0-0----0-|


Verse: You can do your own plucking but this is the most beautiful way to pluck it.
   G       D/F#      Em            CM7           Dsus-D
e------------------------0-------------------0---3-----2--------|
b-----3---------3-------0-----0---0-----------------3-------3---|
g-------0---------0----0--------0-----0-2----------2-2----2---2-|
d---0--------0--------2-------------2------2---0-0-----0--------|
a---------------------------------3-----------------------------|
e-3-------2---------0-------0-----------------------------------|
  You are forever......

   G       D/F#      Em            CM7           Dsus-D-Dsus
e------------------------0-------------------0---3----2---3-|
b-----3---------3-------0-----0---0--------------3----3---3-|
g-------0---------0----0--------0-----0-2-----------2---2---|
d---0--------0--------2-------------2------2---0-0----0---0-|
a---------------------------------3-------------------------|
e-3-------2---------0-------0-------------------------------|
  Cover me with....

Refrain: It depends on you how you will play it. You can do strumming, plucking, or tapping 
		but the most beautiful way is to do both plucking and tapping.
    Bm            C
And I, I look to you
    Bm          C-D
And I  wait on you

Chorus: 
      G                CM7 
I'll sing to You Lord a hymn of love
          D       Em      C-D
For Your faithfulness to me
     G             CM7 
I'm carried in everlasting arms
        D/F#  Em     C(pause)
You'll never let me go
  D(Pause)       G--D
Through It all
 
	(Repeat Verse and Chorus)

This is the lead part before the bridge.
e---------------------------------|
b-11--9--8--9---9/13-13--11--9--8-|
g---------------------------------|

Bridge:
G Em  CM7 Dsus-D     
Hallelujah....(4x)
 
	(Repeat Chorus)
Coda:
 G--Em--CM7--Dsus-D

g--------------------------------------|
d-8-6-5-6--10-8-6-8--8-6-5-6--10-8-6-5-|
a--------------------------------------|
e--------------------------------------|
	That's all,.. 
-----------------------------------------------------------------------------
Glory to God!!!


    -whatever9-
            
Hard to play? Try these video lessons and learn fast. | Correct




comments powered by Disqus
↑ Back to top | Tablatures and chords are parodies/interpretations of the original songs. You may use it for private study, scholarship, research or language learning purposes only