» » »

Hillsongs, Through It All Tabs (ver.1)

Artists:  A B C D E F G H I J K L M N O P Q R S T U V W X Y Z # 

Through It All Tabs (ver.1)

Hillsongs Tabs
 Rating:
4/5 (4 votes)
Through It All lessons Tabs too difficult? Try these video lessons and learn fast
                THROUGH IT ALL
HILLSONG AUSTRALIA
Tabs interpretation by Rayfox

It's not 100% accurate:
SWITCHBLADE BAND of South Cotabato
Christian Rockers keep on rockin'

Guitar 1: Accoustic Guitar
Guitar 2: Electric Guitar with Distortion
Standard Tuning

INTRO:
    Gsus2      Em9           CMaj7  C6        Dsus4   D    
|----------------------------------0------------------------------|
|---1------0---------------3--0--------------------3--------------|
|-----0---(0)-----------0--------0----2-----2----2---2---2--------|
|-------0------------0--------------------0----0-------0----------|
|-----------------2-----------3---------0-------------------------|
|---3----------0--------------------------------------------------|

    Gsus2      Em9           CMaj7  C6        Dsus4   D    
|---------------------------------------------3------2------------|
|---1----------0----------------3--0--------------3-------3-------|
|-----0---0------0---0--------0-------0----2----2-------2---------|
|-------0----------0-------0------------0-----0------0------------|
|--------------2--------2----------3------------------------------|
|---3-----------------0-------------------------------------------|

VERSE:
  G        D/F#         Em            CMaj7    C6      Dsus4
|-----------------------------------------------------------------|
|---------------------------------0-------------0-------3-----3---|
|--------2------2-------0--------------------0--------2-----2-----|
|-----------------0---2---2----2-----------2--------0-----0-------|
|----2--------0-------------------------3-------------------------|
|-3--------2--------0-------0-------------------------------------|
  You are forever in my life,      You see me through the seasons
  G        D/F#      Em          CMaj7  C6   Dsus4  D Dsus2 
|-----------------------------------------------3---2---0---------|
|-------3--------3-------0----------0---1---------3---3---3-3-----|
|----------------2-------0----------0---0-------2---2---2---------|
|----------------------2----------2-------------------------0-----|
|----2--------0------2----------3---------------------------------|
|--3--------2------0----------------------------------------------|
  Cover me with Your hand, and lead me in Your righteousness
 GUITAR 1:
      Bm7           C      Bm7          C   Dsus4
|-------------------------------------------------3--3--3--3------|
|---7--7-7p8-7---1---1---7--7--7--7---1--1--1--1--3--3--3--3------|
|---7--7-----7---0---0---7--7--7--7---0--0--0--0--2--2--2--2------|
|---7--7-----7---2---2---7--7--7--7---2--2--2--2--0--0--0--0------|
|---9--9-----9---3---3---9--9--9--9---3--3--3--3------------------|
|-----------------------------------------------------------------|
| GUITAR 2:
|----------------8/10\8-------------------------------------------|
|----7/8\7-------x-x--x---7h8p7---8--10---------------------------|
|----------------5/7\ 5---7-------x---x---------------------------|
|---------------------------------5---7---------------------------|
|-----------------------------------------------------------------|
|-----------------------------------------------------------------|
| GUITAR 2: Second Time
|-----------------------------------------------------------------|
|--------------8-7-5-3-------------5----7-------------------------|
|-----------------------------------------------------------------|
|-----------------------------------------------------------------|
|-----------------------------------------------------------------|
|-----------------------------------------------------------------|
  And I look to You, and I wait on You
CHORUS:
      Gsus2          G      CMaj7   C6
|--3--3--3--3--3--3--3--------------------------------------------|
|--1--1--1--1--1--0--0---0--0--0--0--1--1-------------------------|
|--0--0--0--0--0--0--0---0--0--0--0--0--0-------------------------|
|--0--0--0--0--0--0--0---2--2--2--2--2--2-------------------------|
|--2--2--2--2--2--2--2---3--3--3--3--3--3-------------------------|
|--3--3--3--3--3--3--3--------------------------------------------|
  I'll sing to You Lord a hymn of love 
           D        Em       C    Dsus4
|-------2--2--2--2-0--0--0--------3--3--3--3--------------------|
|-------3--3--3--3-0--0--0--1--1--3--3--3--3--------------------|
|-------2--2--2--2-0--0--0--0--0--2--2--2--2--------------------|
|-------0--0--0--0-2--2--2--2--2--0--0--0--0--------------------|
|------------------2--2--2--3--3--------------------------------|
|------------------0--0--0--------------------------------------|
  For Your faithfulness to me
       Gsus2    G         CMaj7   C6
|-------3--3--3--3----------------------------------------------|
|-------1--1--0--0------0--0--0--0--1--1------------------------|
|-------0--0--0--0------0--0--0--0--0--0------------------------|
|-------0--0--0--0------2--2--2--2--2--2------------------------|
|-------2--2--2--2------3--3--3--3--3--3------------------------|
|-------3--3--3--3----------------------------------------------|
    I'm carried in everlasting arms
       D/F#  Gsus4 G  C  Dsus4        G
|-------------------------3--3--3--3-3---3---3---3--------------|
|---3--3--3--3--1--0---1--3--3--3--3-0---0---0---0--------------|
|---2--2--2--2--0--0---0--2--2--2--2-0---0---0---0--------------|
|---0--0--0--0--0--0---2--0--0--0--0-0---0---0---0--------------|
|---x--x--x--x--x--2---3-------------2---2---2---2--------------|
|---2--2--2--2--3--3-----------------3---3---3---3--------------|
  You'll never let me go through it all

REPEAT VERSE: (THIS TIME CHORDS ARE PLAYED NOT ARRPEGIATED)

REPEAT CHORUS: 2X

INSTRUMENTAL:

Note: I made an octave here as an arrangements for keyboard
GUITAR 1:
  Gsus2 G  Em9 Em    CMaj7 C6  Dsus4  D
|--3-3-3-3--0-0-0-0------------3--3--2--2---------------------|
|--1-1-0-0--3-3-0-0---0-0-1-1--3--3--3--3---------------------|
|--0-0-0-0--0-0-0-0---0-0-0-0--2--2--2--2---------------------|
|--0-0-0-0--2-2-2-2---2-2-2-2--0--0--0--0---------------------|
|--2-2-2-2--2-2-2-2---3-3-3-3---------------------------------|
|--3-3-3-3--0-0-0-0-------------------------------------------|
|GUITAR 2:                                                     
|----17-----15--14--14------19-----17---15-----14-------------|
|-------------------------------------------------------------|
|---/14-----12--11--12------16-----14---12-----11-------------|
|-------------------------------------------------------------|
|-------------------------------------------------------------|
|-------------------------------------------------------------|
Repeat 2X:

BRIDGE:

  Gsus2 G  Em9 Em    CMaj7 C6  Dsus4  D
|--3-3-3-3--0-0-0-0------------3--3--2--2---------------------|
|--1-1-0-0--3-3-0-0---0-0-1-1--3--3--3--3---------------------|
|--0-0-0-0--0-0-0-0---0-0-0-0--2--2--2--2---------------------|
|--0-0-0-0--2-2-2-2---2-2-2-2--0--0--0--0---------------------|
|--2-2-2-2--2-2-2-2---3-3-3-3---------------------------------|
|--3-3-3-3--0-0-0-0-------------------------------------------|
  Ha   lle  lu jah,   Ha  lle    lu jah  



  Gsus2 G  Em9 Em    CMaj7 C6  Dsus4  D
|--3-3-3-3--0-0-0-0------------3--3--2--2---------------------|
|--1-1-0-0--3-3-0-0---0-0-1-1--3--3--3--3---------------------|
|--0-0-0-0--0-0-0-0---0-0-0-0--2--2--2--2---------------------|
|--0-0-0-0--2-2-2-2---2-2-2-2--0--0--0--0---------------------|
|--2-2-2-2--2-2-2-2---3-3-3-3---------------------------------|
|--3-3-3-3--0-0-0-0-------------------------------------------|
  Ha   lle  lu jah,   Ha  lle    lu jah  
Repeat 2X

BACK TO CHORUS:

OUTRO INSTRUMENTAL:
GUITAR 1:
  Gsus2 G  Em9 Em    CMaj7 C6  Dsus4  D
|--3-3-3-3--0-0-0-0------------3--3--2--2---------------------|
|--1-1-0-0--3-3-0-0---0-0-1-1--3--3--3--3---------------------|
|--0-0-0-0--0-0-0-0---0-0-0-0--2--2--2--2---------------------|
|--0-0-0-0--2-2-2-2---2-2-2-2--0--0--0--0---------------------|
|--2-2-2-2--2-2-2-2---3-3-3-3---------------------------------|
|--3-3-3-3--0-0-0-0-------------------------------------------|
| GUITAR 2:                                                   |
|-------------------------------------------------------------|
|-10-----8----6----8---12---10----8-----6---------------------|
|--x-----x----x----x----x----x----x-----x---------------------|
|--7-----5----4----5----9----7----5-----4---------------------|
|-------------------------------------------------------------|
|-------------------------------------------------------------|
 Repeat 2X:

END: G
            
Submit corrections

comments powered by Disqus
↑ Back to top | Hillsongs Tabs for Through It All. Lyrics for acoustic guitar and electric guitar. Tablatures and chords are parodies/interpretations of the original songs. You may use it for private study, scholarship, research or language learning purposes only