» » »

The Time Has Come Bass tabs (ver.1)

Artists:  A B C D E F G H I J K L M N O P Q R S T U V W X Y Z # 

The Time Has Come Bass tabs (ver.1)

Hillsongs
Rating:
0/5 (0 votes)

Tabs too difficult? Try these video lessons and learn fast.
                -------------------------------------------------------------------------------
	             THE TIME HAS COME – United We Stand
-------------------------------------------------------------------------------


Tuning: Standard

Intro/Verse:

G|---------------------------------------------------------------------------|
D|---------------------------------------------------------------------------|
A|5/12-12-12-12-12-12-12-12-12-12-12-12-12-12-12-12-12-12-12-12-12-12-12-12--|
E|---------------------------------------------------------------------------|

G|----------------------------|-------------|
D|----------------------------|-------------|
A|12-12-12-12-12-12-12-12-12~-|-------------|
E|----------------------------|-------------|
                              (Found love….)

G|-------------------|------------------------------------|--|-------------|
D|-------------------|------------------------------------|--|-------------|
A|-99999999-55555555-|0000-000-7/12-12-12-12-12-12-12-12~-|--|12h14p12-----|
E|-------------------|------------------------------------|--|-------------|
                                                       
G|-------------------|------------------------------------|
D|-------------------|------------------------------------|
A|-99999999-55555555-|0000-000-7/12-12-12-12-12-12-12-12--|
E|-------------------|------------------------------------|

Pre-Chorus:

G|------------------|--------------------|------------------|------------------|
D|------------------|--------------------|------------------|------------------|
A|-7-7-7-7--9-9-9-9-|-5-5-5-5--3/5-5-5-5-|-7-7-7-7--9-9-9-9-|-5555555555555555-|
E|------------------|--------------------|------------------|------------------|

Chorus:
G|-------------------------|------------------|------------------|
D|-------------------------|------------------|------------------|
A|-0000-0000000-7/12-12-12-|-9999-9999999-999-|-5555-5555555-555-|
E|-------------------------|------------------|------------------|

G|----------------------------------------|
D|----------------------------------------|
A|-0000-000-7/12-12-12-12-12-12-12-12-12--|
E|----------------------------------------|

G|-------------------|------------------|--------------------|
D|-------------------|------------------|--------------------|
A|--0000-0000000-788-|-9999999999999999-|-5555-5555555-555---|
E|-------------------|------------------|--------------------|

G|-------------------------------------------|
D|-------------------------------------------|
A|-0000-000-7/12-12-12-12-12-12-12-12-12-12~-|
E|-------------------------------------------|

Verse
Pre-Chorus
Chorus

Pre-Bridge:
G|--------------------------------------------------------|
D|--------------------------------------------------------|
A|9979-979--5555-555--0000-000--7/12-12-12-12-12-12-12-12-|
E|--------------------------------------------------------|

G|--------------------------------------------------------|
D|--------------------------------------------------------|
A|9979-979--5555-555--0000-000--7/12-12-12-12-12-12-12-12-|
E|--------------------------------------------------------|

G|--------------------------------|----------------------------------|
D|----7-9-----7-9-----7-9-----7-9-|----7-9-------------7-9-----------|
A|9-9-----9-9-----9-9-----9-9-----|------------7-9-------------7-7-7-|
E|--------------------------------|7-7-----7-7-----7-7-----7---------|

G|--------------------------------|----------------------------------|
D|----7-9-----7-9-----7-9-----7-9-|----7-9-------------7-9-----------|
A|9-9-----9-9-----9-9-----9-9-----|------------7-9-------------7-7-7-|
E|--------------------------------|7-7-----7-7-----7-7-----7---------|

Bridge (X3):
G|--------------------------------|----------------------------------|
D|----7-9-----7-9-----7-9-----7-9-|----7-9-------------7-9-----------|
A|9-9-----9-9-----9-9-----9-9-----|------------7-9-------------7-7-7-|
E|--------------------------------|7-7-----7-7-----7-7-----7---------|

G|--------------------------------|----------------------------------|
D|0-0-7-9-0-0---7-0-0-7-9-0-0---7-|-------------------------9---8-9--|
A|------------9---------------9---|0-0-0-0-0-0-0-0--7-7-7-7---7------|
E|--------------------------------|----------------------------------|

Pre-Chorus (x2)
Chorus

Outro (In everything I do...):
G|--------------------------------------------------------|
D|--------------------------------------------------------|
A|9979-979--5555-555--0000-000--7/12-12-12-12-12-12-12-12-|
E|--------------------------------------------------------|

G|--------------------------------------------------------|
D|--------------------------------------------------------|
A|9979-979--5555-555—0~----------------------------------|
E|--------------------------------------------------------|

I fixed this tab as I just learned how to write a tab properly... =P
Any comments please write to me...

| /  slide up
| \  slide down
| h  hammer-on
| p  pull-off
| ~  vibrato
| +  harmonic
| x  Mute note
===============================================================================
            
Tabs too difficult? Try these video lessons and learn fast.




comments powered by Disqus
↑ Back to top | Tablatures and chords are parodies/interpretations of the original songs. You may use it for private study, scholarship, research or language learning purposes only