» » »

Hillsongs, The Stand Tabs (ver.2)

Artists:  A B C D E F G H I J K L M N O P Q R S T U V W X Y Z # 

The Stand Tabs (ver.2)

Hillsongs Tabs
 Rating:
4/5 (4 votes)
The Stand lessons Tabs too difficult? Try these video lessons and learn fast
                Here are the lead guitar parts for this song.

Tuning (EADGBE)

E|---------------------------------------------------------------------|
B|--7-------9--------10---------9----7-------9-------10------------14--|
G|---------------------------------------------------------------------|
D|----7/9------9/11-------11\9---------7/9------9/11------/12-/14------|
A|---------------------------------------------------------------------|
e|---------------------------------------------------------------------|


E|----------------------------------------------------------------------|
B|--7-------9-------10-------9---7-------9----------10--------9----10~--|
G|-----------------------------------------------------------------9~---|
D|----7/9-----9/11-----11\9---------7/9--------9/11-----11\9------------|
A|----------------------------------------------------------------------|
e|----------------------------------------------------------------------|
REST


E|----------------------------------------------------------------------|
B|--7--------9--------10--------9----7-------9---------10---------14----|
G|----------------------------------------------------------------------|
D|-----7/9------9/11------11\9---------7/9-------9/11-----/12-/14-------|
A|----------------------------------------------------------------------|
e|----------------------------------------------------------------------|

E|----------------------------------------------------------------|
B|--7-------9--------10---------9----7-------9-------10--------9--|
G|----------------------------------------------------------------|
D|----7/9-----9/11-------11\9----------7/9-----9/11-----11\9------|
A|----------------------------------------------------------------|
e|----------------------------------------------------------------|




ON THE 4TH TIME
E|------------14----------12---------14--------9v~---|
B|---------------------------------------------------|
G|--/12-/14-------14/12-------12/14------14\9--------|
D|---------------------------------------------------|
A|---------------------------------------------------|
e----------------------------------------------------|




E|-----------------------------------------------------------|
B|--14----14-----17----17-----12-----12------14------15------|
G|-----------------------------------------------------------|
D|-----14----14----14-----14-----14-----14-------14------14--| 8X
A|-----------------------------------------------------------|
e|-----------------------------------------------------------|



B|--14~--------|
G|-------REST--|
D|--14~--------|
A|-------------|
e|-------------|

  One Time|These chords just follow the rhythem of the song.
E|--------|--------------------|
B|--------|--------------------|
G|--1-----|--7-------9---/11---|
D|--2---4-|--7---7---9---/11---|4x
A|--2---4-|--5---7---7---/9----|
e|------2-|------5-------------|



E|-------------------------------------------------------------------|
B|--7--------9--------10---------9----7-------9---------10--------9--|
G|-------------------------------------------------------------------|
D|-----7/9------9/11------11\9-----------7/9------9/11------11\9-----|
A|-------------------------------------------------------------------|
e|-------------------------------------------------------------------|


E|-----------14----------12---------14--------9---|
B|------------------------------------------------|
G|--/12-/14------14/12-------12/14------14\9------|
D|------------------------------------------------|
A|------------------------------------------------|

 END SONG
E|-----------|
B|---10~-----|
G|---9~------|
D|---12~-----|
A|-----------|

Well thats the lead of this song have fun.
            
Submit corrections

comments powered by Disqus
↑ Back to top | Hillsongs Tabs for The Stand. Lyrics for acoustic guitar and electric guitar. Tablatures and chords are parodies/interpretations of the original songs. You may use it for private study, scholarship, research or language learning purposes only