» » »

Hillsongs, Tell The World Tabs (ver.2)

Artists:  A B C D E F G H I J K L M N O P Q R S T U V W X Y Z # 

Tell The World Tabs (ver.2)

Hillsongs Tabs
Rating:
0/5 (0 votes)
Tell The World lessons Tabs too difficult? Try these video lessons and learn fast
                Hillsongs – Tell the World
Standard tuning – EADGBe

Intro

First there are 16 beats of bass drum, then bass comes in with this:

Bass (play all throughout intro, verse, interlude, and prechorus)
G|-----------------------------------|
D|--4-4-4-2-2-2----------------------|
A|--------------4-4-5-5-5-4-4-4------|         X6
E|------------------------------5-5--|

Then after that, lead guitar comes in with this:

Lead Guitar
E|----------------------------------------|
B|----------------------------------------|
G|--10b11~-—10b11~------------------------|
D|------------------11-11-11-11-11-10-10--|      X4
A|----------------------------------------|
E|----------------------------------------|

Then after that, rhythm guitar comes in with:

Rhythm Guitar
G|-------------------------------------|
D|--4-4-4-2-2-2------------------------|         X2
A|--------------4-4-5-5-5-4-4-4--------|
E|------------------------------5-5-5--|

Verse

Lead Guitar (those are all 9’s, 10’s, and 11’s)
E|----------------------9-9-9-9------|
B|--10-10-10-10-10-10--10101010------|
G|--11-11-11-11-11-11----------------|
D|-----------------------------------|
A|-----------------------------------|
E|-----------------------------------|

E|--------------------------------------|
B|--10-10-10-10--111111-101010-999------|
G|--11-11-11-11--101010-111111-999------|
D|--------------------------------------|
A|--------------------------------------|
E|--------------------------------------|

In Verse 2, add this:
Rhythm Guitar
G|-------------------------------------|
D|--4-4-4-2-2-2------------------------|
A|--------------4-4-5-5-5-4-4-4--------|
E|------------------------------5-5-5--|


Prechorus

Lead Guitar 
E|-------------------|
B|--------10-10------|
G|--------------11~--|     X4
D|--11-11------------|
A|-------------------|
E|-------------------|

Rhythm Guitar
G|-------------------------------------|
D|--4-4-4-2-2-2------------------------|    X4
A|--------------4-4-5-5-5-4-4-4--------|
E|------------------------------5-5-5--|

Chorus

Lead and Rhythm Guitars (you can make up a rhythm; I think it’s just eighth notes)
B|--------------|
G|-----------7--|
D|--7--2--4--7--|   X2
A|--7--2--4--5--|
E|--5--0--2-----|

Interlude (basically same as intro)

Lead Guitar
E|----------------------------------------|
B|----------------------------------------|
G|--10b11~-—10b11~------------------------|
D|------------------11-11-11-11-11-10-10--|
A|----------------------------------------|      X2
E|----------------------------------------|

Bridge:
There is a space where the drums go and the singers sing, then the bass goes:

Bass
G|---------------------------------------|
D|---------------------------------------|
A|-----------------------------55555555--|
E|--55555555-77777777-22222222-----------|       X4

Then:
Lead Guitar 
E|-------------------|
B|--------10-10------|
G|--------------11~--|     X2
D|--11-11------------|
A|-------------------|
E|-------------------|

Outro
Lead and Rhythm Guitars
B|--------------|
G|-----------7--|
D|--7--9--4--7--|   X3
A|--7--9--4--5--|
E|--5--7--2-----|

Then lead guitar mess around on here:
E|--10------|
B|------10--|

And end!

Order:
Intro
Verse 1
Prechorus
Chorus
Interlude
Verse 2
Chorus X2
Bridge
Chorus X2
Outro
            

comments powered by Disqus
↑ Back to top | Hillsongs Tabs for Tell The World. Lyrics for acoustic guitar and electric guitar. Tablatures and chords are parodies/interpretations of the original songs. You may use it for private study, scholarship, research or language learning purposes only