» » »

Hillsongs, Tell The World Tabs (ver.1)

Artists:  A B C D E F G H I J K L M N O P Q R S T U V W X Y Z # 

Tell The World Tabs (ver.1)

Hillsongs Tabs
Rating:
0/5 (0 votes)
Tell The World lessons Tabs too difficult? Try these video lessons and learn fast
                TELL THE WORLD
Hillsong from the album “GOD HE REIGNS”
Track No. 6 Disc No. 2
Guitar 1: Acoustic Guitar
Guitar 2: Electric Guitar
It’s not 100% accurate just my own interpretation

Tuning: Standard
INTRO:
|---------------------------------------------------------------|
|--x-x-x-x--7------5-------5---------7-----5----------5---------|
|--x-x-x-x—-9b11---7b9--6--6b7-------9b11—-7b9----6---6b7-------|
|--x-x-x-x-----------------------/7------------------------7~~--|
|--x-x-x-x------------------------------------------------------|
|---------------------------------------------------------------|
BASSLINE:
|---------------------------------------------------------------|
|---4-4-4-4-----------------------------------------------------|
|-----------7-7-7-7---4-4-5-5-5-4-------------------------------|
|----------------------------------5----------------------------|
VERSE:
     F#m
|----0----------------------------------------------------------|
|----3----------------------------------------------------------|
|----3----------------------------------------------------------|
|----4----------------------------------------------------------|
|---------------------------------------------------------------|
|---------------------------------------------------------------|
 Don’t wanna stand here and shout Your praise
     F#m
|----0----------------------------------------------------------|
|----3---3------------------------------------------------------|
|----3----------------------------------------------------------|
|----4----------------------------------------------------------|
|---------------------------------------------------------------|
|---------------------------------------------------------------|
 And walk away and forget Your Name
     F#m
|---------------------------------------------------------------|
|---------------------------------------------------------------|
|---------11----------------------------------------------------|
|---------11----------------------------------------------------|
|----7/9--------------------------------------------------------|
|---------------------------------------------------------------|
 I stand for You if that’s all I do
   F#m                             Distorted Guitar
|-----------0---------------------------------------------------|
|-----------7---------------------------------------------------|
|-----------6---------------------------------------------------|
|-----2/4-----------------------------16\-----------------------|
|-------------------------------------16\-----------------------|
|-------------------------------------14\-----------------------|
 ‘cause there is none that compares to You
PRE-CHORUS:
  F#m
  P.M.
|---------------------------------------------------------------|
|---------------------------------------------------------------|
|---------------------------------------------------------------|
|--4--4--4--4---------------------------------------------------|
|---------------7--7--7--7---4--4--5--5--5—4~-------------------|
|-----------------------------------------------5~--------------|
 ‘ Cause all I want in this lifetime is You
  F#m
  P.M.
|---------------------------------------------------------------|
|---------------------------------------------------------------|
|---------------------------------------------------------------|
|--4--4--4--4-----------------------------------------------14\-|
|---------------7--7--7--7---4--4--5--5--5—4b5r4~-----------14\-|
|-------------------------------------------------5~--------12\-|
 And all I want in this whole world is You, You, You
CHORUS:
   A                  E
|---------------------------------------------------------------|
|---------------------------------------------------------------|
|---------------------9--9--9--9--9--9--------------------------|
|--7--7--7--7--7--7---9--9--9--9--9--9--------------------------|
|--7--7--7--7--7--7---7--7--7--7--7--7--------------------------|
|--5--5--5--5--5--5---------------------------------------------|
 Tell the world that Jesus lives
   F#m                D
|---------------------------------------------------------------|
|---------------------------------------------------------------|
|---------------------7--7--7--7--7--7--------------------------|
|-11-11-11-11-11-11---7--7--7--7--7--7--------------------------|
|-9--9--9--9--9--9----5--5--5--5--5--5--------------------------|
|---------------------------------------------------------------|
 Tell the world that, tell the world that
    A                 E
|---------------------------------------------------------------|
|---------------------------------------------------------------|
|---------------------9--9--9--9--9--9--------------------------|
|--7--7--7--7--7--7---9--9--9--9--9--9--------------------------|
|--7--7--7--7--7--7---7--7--7--7--7--7--------------------------|
|--5--5--5--5--5--5---------------------------------------------|
 Tell the world that He died for them
   F#m                D
|---------------------------------------------------------------|
|---------------------------------------------------------------|
|---------------------7--7--7--7--7--7--------------------------|
|-11-11-11-11-11-11---7--7--7--7--7--7--------------------------|
|-9--9--9--9--9--9----5--5--5--5--5--5--------------------------|
|---------------------------------------------------------------|
 Tell the world that He lives again
INTR0 2:
|------------------------------------------------------------12\|
|-----------7------5-------5---------7-----5----------5---------|
|---------—-9b11---7b9--6--6b7-------9b11—-7b9----6---6b7-------|
|--------------------------------/7------------------------7~~--|
|---------------------------------------------------------------|
|---------------------------------------------------------------|
VERSE 2:
  F#m
|---------------------------------------------------------------|
|-------------------------------9--7----------------------------|
|-------------------------6--7----------------------------------|
|---------------------------------------------------------------|
|---------------------------------------------------------------|
|---------------------------------------------------------------|
 No longer I, but Christ in me
 F#m
|---------------------------------------------------------------|
|---------------------------------------9--7--------------------|
|---------------------------------6--7--------------------------|
|---------------------------------------------------------------|
|---------------------------------------------------------------|
|---------------------------------------------------------------|
 Cause it’s the truth that set me free
 F#m
|---------------------------------------------------------------|
|-----------------------------------------9--7------------------|
|-----------------------------------6--7------------------------|
|---------------------------------------------------------------|
|---------------------------------------------------------------|
|---------------------------------------------------------------|
 How could this world be a better place
 F#m
|---------------------------------------------------------------|
|----------------------------9--7-------------------------------|
|----------------------6--7-------------------------------------|
|---------------------------------------------------------------|
|---------------------------------------------------------------|
|---------------------------------------------------------------|
 But by mercy, by Thy grace
PRE-CHORUS:
  F#m 
|---9--7--9-------9--7--9-------9--7--9-------------------------|
|------------10------------10------------10---------------------|
|---------------------------------------------------------------|
|---------------------------------------------------------------|
|---------------------------------------------------------------|
|---------------------------------------------------------------|
 Cause all I want in this lifetime is You
  F#m
|---9--7--9-------9--7--9-------9--7--9-------------------------|
|------------10------------10------------10---------------------|
|---------------------------------------------x--x--------------|
|---------------------------------------------x--x--------------|
|---------------------------------------------x--x--------------|
|---------------------------------------------x--x--------------|
 And all I want in this whole world is You, You, You
CHORUS:
   A                  E
|---------------------------------------------------------------|
|---------------------------------------------------------------|
|---------------------9--9--9--9--9--9--------------------------|
|--7--7--7--7--7--7---9--9--9--9--9--9--------------------------|
|--7--7--7--7--7--7---7--7--7--7--7--7--------------------------|
|--5--5--5--5--5--5---------------------------------------------|
 Tell the world that Jesus lives
   F#m                D
|---------------------------------------------------------------|
|---------------------------------------------------------------|
|---------------------7--7--7--7--7--7--------------------------|
|-11-11-11-11-11-11---7--7--7--7--7--7--------------------------|
|-9--9--9--9--9--9----5--5--5--5--5--5--------------------------|
|---------------------------------------------------------------|
 Tell the world that, tell the world that
    A                 E
|---------------------------------------------------------------|
|---------------------------------------------------------------|
|---------------------9--9--9--9--9--9--------------------------|
|--7--7--7--7--7--7---9--9--9--9--9--9--------------------------|
|--7--7--7--7--7--7---7--7--7--7--7--7--------------------------|
|--5--5--5--5--5--5---------------------------------------------|
 Tell the world that He died for them
   F#m                D
|---------------------------------------------------------------|
|---------------------------------------------------------------|
|---------------------7--7--7--7--7--7--------------------------|
|-11-11-11-11-11-11---7--7--7--7--7--7--------------------------|
|-9--9--9--9--9--9----5--5--5--5--5--5--------------------------|
|---------------------------------------------------------------|
 Tell the world that He lives again
   A                  E
|---------------------------------------------------------------|
|---------------------------------------------------------------|
|---------------------9--9--9--9--9--9--------------------------|
|--7--7--7--7--7--7---9--9--9--9--9--9--------------------------|
|--7--7--7--7--7--7---7--7--7--7--7--7--------------------------|
|--5--5--5--5--5--5---------------------------------------------|
 Tell the world that Jesus lives
   F#m                D
|---------------------------------------------------------------|
|---------------------------------------------------------------|
|---------------------7--7--7--7--7--7--------------------------|
|-11-11-11-11-11-11---7--7--7--7--7--7--------------------------|
|-9--9--9--9--9--9----5--5--5--5--5--5--------------------------|
|---------------------------------------------------------------|
 Tell the world that, tell the world that
    A                 E
|---------------------------------------------------------------|
|---------------------------------------------------------------|
|---------------------9--9--9--9--9--9--------------------------|
|--7--7--7--7--7--7---9--9--9--9--9--9--------------------------|
|--7--7--7--7--7--7---7--7--7--7--7--7--------------------------|
|--5--5--5--5--5--5---------------------------------------------|
 Tell the world that He died for them
   F#m                D                      A
|---------------------------------------------------------------|
|--------------------------------------------------------10-----|
|---------------------7--7--7--7--7--7-------6----2/11----------|
|-11-11-11-11-11-11---7--7--7--7--7--7-------7------------------|
|-9--9--9--9--9--9----5--5--5--5--5--5-------7------------------|
|--------------------------------------------5------------------|
 Tell the world that He lives again
 BRIDGE:
 ACAPELLA:
|---------------------------------------------------------------|
|---------------------------------------------------------------|
|------------------------------------------------x--x-----------|
|------------------------------------------------x--x-----------|
|------------------------------------------------x--x-----------|
|------------------------------------------------x--x-----------|
 Come on, come on we’ll tell the world about You

|---------------------------------------------------------------|
|---------------------------------------------------------------|
|---------------------------------------------------------------|
|---------------------------------------------------------------|
|---------------------------------------------------------------|
|---------------------------------------------------------------|
 Come on, come on we’ll tell the world about You
 Guitar 1:
  A                    Bm7         F#m          D
|---------------------------------------------------------------|
|---------0-------------------0-----------0-------------0-------|
|--2---2-----2---------2---2----2------2-----2---2---2-----2----|
|--2-------------------0-------------------------0--------------|
|--0-------------------2----------------------------------------|
|----------------------------------2----------------------------|
|Guitar 2:                                                      |
|---------------------------------------------------------------|
|---------------------------------------------------------------|
|----------------------------------11-11-11-11--7--7--7--7------|
|--7--7--7--7--7--7--7--9--9--9--9-11-11-11-11--7—-7--7--7------|
|--7--7--7--7--7--7--7--9--9--9--9--9--9--9--9--5--5--5--5------|
|--5--5--5--5--5--5--5--7--7--7--7---------------
 Come on, come on we’ll tell the world about You
Guitar 1:
  A                    Bm7         F#m          D
|---------------------------------------------------------------|
|---------0-------------------0-----------0-------------0-------|
|--2---2-----2---------2---2----2------2-----2---2---2-----2----|
|--2-------------------0-------------------------0--------------|
|--0-------------------2----------------------------------------|
|----------------------------------2----------------------------|
|Guitar 2:                                                      |
|---------------------------------------------------------------|
|---------------------------------------------------------------|
|----------------------------------11-11-11-11--7--7--7--7------|
|--7--7--7--7--7--7--7--9--9--9--9-11-11-11-11--7—-7--7--7------|
|--7--7--7--7--7--7--7--9--9--9--9--9--9--9--9--5--5--5--5------|
|--5--5--5--5--5--5--5--7--7--7--7------------------------------|
 Come on, come on we’ll tell the world about You
Guitar 1:
  A                     E           F#m         D
|--5--5--5--5--5--5--5--7--7--7--7---9--9--9--9-10-10-10-10-----|
|--5--5--5--5--5--5--5--7--7--7--7--10-10-10-10--7--7--7--7-----|
|--6--6--6--6--6--6--6--7--7--7--7--11-11-11-11--7--7--7--7-----|
|--7--7--7--7--7--7--7--9--9--9--9--11-11-11-11--7--7--7--7-----|
|---------------------------------------------------------------|
|---------------------------------------------------------------|
|Guitar 2:                                                      |
|---------------------------------------------------------------|
|---------------------------------------------------------------|
|----------------------------------11-11-11-11--7--7--7--7------|
|--7--7--7--7--7--7--7--9--9--9--9-11-11-11-11--7—-7--7--7------|
|--7--7--7--7--7--7--7--9--9--9--9--9--9--9--9--5--5--5--5------|
|--5--5--5--5--5--5--5--7--7--7--7------------------------------|
 Come on, come on we’ll tell the world about You
Guitar 1:
  A                     E           F#m         D
|--5--5--5--5--5--5--5--7--7--7--7---9--9--9--9-10-10-10-10-----|
|--5--5--5--5--5--5--5--7--7--7--7--10-10-10-10--7--7--7--7-----|
|--6--6--6--6--6--6--6--7--7--7--7--11-11-11-11--7--7--7--7-----|
|--7--7--7--7--7--7--7--9--9--9--9--11-11-11-11--7--7--7--7-----|
|---------------------------------------------------------------|
|---------------------------------------------------------------|
|Guitar 2:                                                      |
|---------------------------------------------------------------|
|---------------------------------------------------------------|
|----------------------------------11-11-11-11--7--7--7--7------|
|--7--7--7--7--7--7--7--9--9--9--9-11-11-11-11--7—-7--7--7------|
|--7--7--7--7--7--7--7--9--9--9--9--9--9--9--9--5--5--5--5------|
|--5--5--5--5--5--5--5--7--7--7--7------------------------------|
Come on, come on we’ll tell the world about You
CHORUS:
   A                  E
|---------------------------------------------------------------|
|---------------------------------------------------------------|
|---------------------9--9--9--9--9--9--------------------------|
|--7--7--7--7--7--7---9--9--9--9--9--9--------------------------|
|--7--7--7--7--7--7---7--7--7--7--7--7--------------------------|
|--5--5--5--5--5--5---------------------------------------------|
 Tell the world that Jesus lives
   F#m                D
|---------------------------------------------------------------|
|---------------------------------------------------------------|
|---------------------7--7--7--7--7--7--------------------------|
|-11-11-11-11-11-11---7--7--7--7--7--7--------------------------|
|-9--9--9--9--9--9----5--5--5--5--5--5--------------------------|
|---------------------------------------------------------------|
 Tell the world that, tell the world that
    A                 E
|---------------------------------------------------------------|
|---------------------------------------------------------------|
|---------------------9--9--9--9--9--9--------------------------|
|--7--7--7--7--7--7---9--9--9--9--9--9--------------------------|
|--7--7--7--7--7--7---7--7--7--7--7--7--------------------------|
|--5--5--5--5--5--5---------------------------------------------|
 Tell the world that He died for them
   F#m                D
|---------------------------------------------------------------|
|---------------------------------------------------------------|
|---------------------7--7--7--7--7--7--------------------------|
|-11-11-11-11-11-11---7--7--7--7--7--7--------------------------|
|-9--9--9--9--9--9----5--5--5--5--5--5--------------------------|
|---------------------------------------------------------------|
 Tell the world that He lives again
   A                  E
|---------------------------------------------------------------|
|---------------------------------------------------------------|
|---------------------9--9--9--9--9--9--------------------------|
|--7--7--7--7--7--7---9--9--9--9--9--9--------------------------|
|--7--7--7--7--7--7---7--7--7--7--7--7--------------------------|
|--5--5--5--5--5--5---------------------------------------------|
 Tell the world that Jesus lives
   F#m                D
|---------------------------------------------------------------|
|---------------------------------------------------------------|
|---------------------7--7--7--7--7--7--------------------------|
|-11-11-11-11-11-11---7--7--7--7--7--7--------------------------|
|-9--9--9--9--9--9----5--5--5--5--5--5--------------------------|
|---------------------------------------------------------------|
 Tell the world that, tell the world that
    A                 E
|---------------------------------------------------------------|
|---------------------------------------------------------------|
|---------------------9--9--9--9--9--9--------------------------|
|--7--7--7--7--7--7---9--9--9--9--9--9--------------------------|
|--7--7--7--7--7--7---7--7--7--7--7--7--------------------------|
|--5--5--5--5--5--5---------------------------------------------|
 Tell the world that He died for them
   F#m                D                      A
|---------------------------------------------------------------|
|--------------------------------------------------------10-----|
|---------------------7--7--7--7--7--7-------6----2/11----------|
|-11-11-11-11-11-11---7--7--7--7--7--7-------7------------------|
|-9--9--9--9--9--9----5--5--5--5--5--5-------7------------------|
|--------------------------------------------5------------------|
 Tell the world that He lives again

OUTRO:
Guitar 1: Do Chords
Guitar 2: Not sure with this 
  A                  Bm          F#m         D 
|---------------------------------------------------------------|
|-10-10-10-10-10-10-10-10-10-10-10-10-10-10-10-10-10-10-10------|
|--x--x--x--x--x--x--x--x--x--x--x--x--x--x--x--x--x--x--x------|
|--7--7--7--7--7--7--7--7--7--7--7--7--7--7--7--7--7--7—-7------|
|---------------------------------------------------------------|
|---------------------------------------------------------------|
 Come on, come on we’ll tell the world about You
  A                  Bm          F#m         D 
|---------------------------------------------------------------|
|-10-10-10-10-10-10-10-10-10-10-10-10-10-10-10-10---7--7—7------|
|--x--x--x--x--x--x--x--x--x--x--x--x--x--x--x--x---x--x--x--7--|
|--7--7--7--7--7--7--7--7--7--7--7--7--7--7--7--7--\4--4—-4--x--|
|------------------------------------------------------------5--|
|---------------------------------------------------------------|
 Come on, come on we’ll tell the world about You
   A                Bm           F#m          D
|---------------------------------------------------------------|
|-10p9h10p9h10-----12-12-12-12----------------------------------|
|--x----------------x--x--x--x--11-11-11-11---7--7--7--7--------|
|--7----------------9--9--9--9---x--x--x--x---x--x--x--x--------|
|--------------------------------9--9--9--9---5--5--5--5--------|
|---------------------------------------------------------------|
 Come on, come on we’ll tell the world about You
   A                Bm           F#m          D (.)
|---------------------------------------------------------------|
|-10-10-10-10-10---12-12-12-12----------------7-----------------|
|--x--x--x--x--x----x--x--x--x--11-11-11-11---7-----------------|
|--7--7--7--7--7----9--9--9--9---x--x--x--x---7-----------------|
|--------------------------------9--9--9--9---5-----------------|
|---------------------------------------------------------------|
 Come on, come on we’ll tell the world about You

God Bless to all Praise and worship Team!
I love Rj, Ag and Donna
            

comments powered by Disqus
↑ Back to top | Hillsongs Tabs for Tell The World. Lyrics for acoustic guitar and electric guitar. Tablatures and chords are parodies/interpretations of the original songs. You may use it for private study, scholarship, research or language learning purposes only