» » »

Stronger Tabs (ver.1)

Artists:  A B C D E F G H I J K L M N O P Q R S T U V W X Y Z # 

Stronger Tabs (ver.1)

Hillsongs
Rating:
0/5 (0 votes)

Hard to play? Try these video lessons and learn fast.
                Pre-verse:
-12--12--13--12--12--10------|
---13--13--13--13--13--13----|
-----------------------------| 2x
-----------------------------|
-----------------------------|
-----------------------------|

Verse: Lead guitar:
-----------------------------|
---13"---------------13------|
-"12--(4x)-12-14---12--------|
-----------------------------|
-----------------------------|
-----------------------------|

Pre-chorus:
-------------------------------|
-12--12--12--12--12--12--12----|
---13--13--13--13--13--12--13--|
-------------------------------|
-------------------------------|
-------------------------------|

Verse 2: rhythm guitar riff.
------------------------8----|
--6---8---5------6---8--8----|
------------(3x)--------5----|
--7---9---5------7---9-------|
-----------------------------|
-----------------------------|

Followed by

Chorus: (not 100% sure)
-----------------------------|
-13--13--13---12--12--12-----|
---12--12--12---12--12--12---|
-----------------------------|
-----------------------------|
-----------------------------|

-------------12--12--12------|
-13--13--13----13--13--13----|
---12--12--12----------------|
-----------------------------|
-----------------------------|
-----------------------------|

-----------------------------|
-13--13--13---12--12--12-----|
---12--12--12---12--12--12---|
-----------------------------|
-----------------------------|
-----------------------------|

Strum
---15----|
---13----|
---12----|
---------|
---------|
---------|

Instrumental: Octave
-----------------------------|
------------13-15-12-13-15---|
-3s9--10-12------------------|
------------10-12-9--10-12---|
-1s7--8--10------------------|
-----------------------------|

------15-15-15-15-15---------|
--17--13-12-13-12-13---------|
------12-12-12-12-12---------|
--14-------------------------|
-----------------------------|
-----------------------------|

Bridge: strum and octaves
-8--------------|
-8-build up-----|
-5--------------|
----------------|
----------------|
----------------|

Followed by:
--8-s15--12-s15--10-s15--7---|
-----------------------------|
--5-s12--9--s12--7--s12--4---| rpt 2x
-----------------------------|
-----------------------------|
-----------------------------|

end with

-8-------|
-8-------|
-5-------|
---------|
---------|
---------|
            
Hard to play? Try these video lessons and learn fast. | Correct




comments powered by Disqus
↑ Back to top | Tablatures and chords are parodies/interpretations of the original songs. You may use it for private study, scholarship, research or language learning purposes only