» » »

Hillsongs, Still Tabs (ver.2)

Artists:  A B C D E F G H I J K L M N O P Q R S T U V W X Y Z # 

Still Tabs (ver.2)

Hillsongs Tabs
 Rating:
4/5 (4 votes)
Still lessons Tabs too difficult? Try these video lessons and learn fast
                
Intro:
(make the bass strings ring)
F Am
e|-1-0-----------------1----0-------------------|
B|--------1--1-0---1------------1---1---0---1---|
G|-----------0----------------------2-----------|
D|----------------------------------------------|
A|----------------------------------0-----------|
E|-----------1----------------------------------|

C G
e|---------------------------------|
B|-------3h5---5-----5----8--------|
G|--5----------0--0------------7---|
D|-----------------------------5---|
A|-------------3---------------5---|
E|---------------------------------|

Verse Chords:
just play around with them

C G/Em Am F D/F# Gsus-G

G/Em D/F# Gsus
e|--3--| e|--2--| e|--3--|
B|--3--| B|--3--| B|--3--|
G|--0--| G|--2--| G|--5--|
D|--2--| D|--0--| D|--5--|
A|--2--| A|-----| A|--5--|
E|--0--| E|--2--| E|--3--|

Chorus:
F G C
F G Am
F G C
F G FM7

Instrumental:
Brass part of the instrumental, on the electric guitar:
---------------------------|
--13-----15-15-15-15-13-13-|
---------------------------|
---------------------------|
---------------------------|
---------------------------|

---------------------------------------------|
-------13----13--15--------13-15b17-15-13-15-|
-12s14----14---------12s14-------------------|
---------------------------------------------|
---------------------------------------------|
---------------------------------------------|

-------15--17----15-17--17-15-17-15----------|
-15s17--------17--------------------17-------|
---------------------------------------------|
---------------------------------------------|
---------------------------------------------|
---------------------------------------------|

-------15-17-20-19---22--15---|
-15h17------------------------|
------------------------------|
------------------------------|
------------------------------|
------------------------------|


Electric guitar part of the instrumental
------------------------------------|
--13-15-13-s17-17-17-17-17-17-15-13-|
------------------------------------| (x2)
------------------------------------|
------------------------------------|
------------------------------------|

------------------------------------15-|
--13-15-13-s17-17-17-17-17-17-15h17----|
---------------------------------------|
---------------------------------------|
---------------------------------------|
---------------------------------------|

---------------------------------------|
-17p15p13------------------------------|
----------17p16p14---------------------|
-------------------17p15p14-14--17-----|
-----------------------------------17--|
---------------------------------------|

------------------------|
-13-12-10---------------|
----------12-12s14------|
-------------------12---|
------------------------|
------------------------|

The next part can't really be heard clearly on the cd, and perhaps you can improvise 
something, as I did with the pentatonic scale:

---------------------------------------|
----------13------13-15b17r15----13-15-|
-14-12-14------14-------------14-------|
---------------------------------------|
---------------------------------------|
---------------------------------------|

----------------------------------------15-15-15-|
-12-13----------------------------15h17----------|
-------12h14-12-12h14-12-------------------------|
-------------------------14-14-------------------|
-------------------------------------------------|
-------------------------------------------------|
            
Submit corrections

comments powered by Disqus
↑ Back to top | Hillsongs Tabs for Still. Lyrics for acoustic guitar and electric guitar. Tablatures and chords are parodies/interpretations of the original songs. You may use it for private study, scholarship, research or language learning purposes only