>
 >
Solution 1 United

Solution 1 United Guitar Tabs

Hillsongs - Solution 1 United chords, tabs, tablatures, lyrics

Guitar lessons | Add/correct | Request | Top 50 tabs Artists:  A B C D E F G H I J K L M N O P Q R S T U V W X Y Z 0-9

Solution 1 United Guitar Tabs – Hillsongs

CD, Sheet music, Poster

Do you like Solution 1 United? Share with your friends now
Tabs


Intro/Pre-Verse
To make it interesting
the bass in the intro makes a prolonged F#
fifth string of the bass which is the B string
then guitar comes in with the riff below
E|-----------------------------------|
B|-------9-9-9-8-9---------8-8-8-6---|
G|---------------------------------9-|
D|-11-9-11-----------9-9-9-----------|
A|-----------------------------------|
E|-----------------------------------|
  

Verse 1:
For the verse its B chord for bass guitar
in the 15th fret on the A string

Pre-Chorus
   G#   E    B    F#
E|----------14-14-14-14-14----------14-14-14-14-14-|
B|-12-11-12----------------12-11-12----------------|
G|-------------------------------------------------|
D|-------------------------------------------------|
A|-------------------------------------------------|
E|-------------------------------------------------|
    

   G#    E    B    F#
E|----------14-14-14-14-14--12-12-11-11-------------|
B|-12-11-12-----------------------------14-14-11-11-|
G|--------------------------------------------------|
D|--------------------------------------------------|
A|--------------------------------------------------|
E|--------------------------------------------------|



Pre-Verse and Verse 2:
 B   F#   E   E
 B   F#   E   E

Pre-Chorus

Chorus:
 E   B    F#
 E   G#m  F#  C#m

Pre-Verse:

verse 3: drums and bass

Pre-Chorus

Chorus:
 E   B    F#  F#
 E   G#m  F#  C#m
 E   B    F#  F#
 E   G#m  F#  Gdim7

Instrumental:
|----------------------------------------------|
|----------------------11-11-11----------------|
|----------11----11-13----------13-13-13-11-13-|
|-13-13-13----13-------------------------------|
|----------------------------------------------|
|----------------------------------------------|

|----------------------------------------------|
|----------------------14-14-14-12-12-12-11-11-|
|----------11----11-13-------------------------|
|-13-13-13----13-------------------------------|
|----------------------------------------------|
|----------------------------------------------|

|----------------------------------------------|
|----------------------11-11-11----------------|
|----------11----11-13----------13-13-13-11-13-|
|-13-13-13----13-------------------------------|
|----------------------------------------------|
|----------------------------------------------|

|------------------------14-14-14-12-12-12-16s18-16-|
|-14-14-14-12-12-12-11-11---------------------------|
|---------------------------------------------------|
|---------------------------------------------------|
|---------------------------------------------------|
|---------------------------------------------------|

Bridge:

    G#m   E    B    F#
|-11--------12--------11-------9-------|
|----12--------12--------12------11----|
|-------13--------13--------11------11-|
|--------------------------------------|
|--------------------------------------|
|--------------------------------------|
  
Chorus: repeat the ending

Ending:
|----------------------------------------------|
|----------------------11-11-11----------------|
|----------11----11-13----------13-13-13-11-13-|
|-13-13-13----13-------------------------------|
|----------------------------------------------|
|----------------------------------------------|

|----------------------------------------------|
|----------------------14-14-14-12-12-12-11-11-|
|----------11----11-13-------------------------|
|-13-13-13----13-------------------------------|
|----------------------------------------------|
|----------------------------------------------|

|----------------------------------------------|
|----------------------11-11-11----------------|
|----------11----11-13----------13-13-13-11-13-|
|-13-13-13----13-------------------------------|
|----------------------------------------------|
|----------------------------------------------|

|----------------------14-14-14-12-12-12-11-11-|
|-14-14-14-12-12-12-11-------------------------|
|----------------------------------------------|
|----------------------------------------------|
|----------------------------------------------|
|----------------------------------------------|

|----------------------------------------------|
|----------------------11-11-11----------------|
|----------11----11-13----------13-13-13-11-13-|
|-13-13-13----13-------------------------------|
|----------------------------------------------|
|----------------------------------------------|

|----------------------------------------------|
|----------------------14-14-14-12-12-12-11-11-|
|----------11----11-13-------------------------|
|-13-13-13----13-------------------------------|
|----------------------------------------------|
|----------------------------------------------|

|----------------------------------------------|
|----------------------11-11-11----------------|
|----------11----11-13----------13-13-13-11-13-|
|-13-13-13----13-------------------------------|
|----------------------------------------------|
|----------------------------------------------|

|-14-14-14-12-12-12-11-11-19-19-19-18-18-18-18-18----16|
|------------------------------------------------------|
|------------------------------------------------------|
|------------------------------------------------------|
|------------------------------------------------------|
|------------------------------------------------------|





Comments


Popular Hillsongs tabs & chords
All Chords
As The Deer Chords
Break Free Chords
Ever Living God Chords
Forever Reign 1 Chords
I Will Go Chords
Majesty Here I Am Chords
You Chords
Forever Reign Tabs
Kingdom Come Intro Tabs


Song lyrics



↑ Back to top | Tablatures and chords are parodies/interpretations of the original songs. You may use it for private study, scholarship, research or language learning purposes only
© 2014 AZChords.com Contact us | Privacy policy | DMCA | Add/correct tabs | Request tabs | Top 50 tabs