» » »

Hillsongs, Solution Bass tabs (ver.1)

Artists:  A B C D E F G H I J K L M N O P Q R S T U V W X Y Z # 

Solution Bass tabs (ver.1)

Hillsongs Tabs
 Rating:
4/5 (4 votes)
Solution lessons Tabs too difficult? Try these video lessons and learn fast
                -------------------------------------------------------------------------------
			     Solution - Hillsong United
-------------------------------------------------------------------------------
Bass Tab
Tuning: EADG

This is a great song by Hillsong United. I'll leave the
little small fills that are in the song up to you,
because it takes way too much space to write it all. :)

The little amount of time between the chorus and verse 3 is just an E.

Song Flow:

Intro: No bass
Verse 1
Pre-chorus
Verse 2
Pre-chorus
Chorus 1
Verse 3
Pre-chorus
Chorus 1
Chorus 2
Guitar Solo, played like Pre-chorus
Bridge
Chorus 1
Chorus 2
Outro


Verse 1:
G|----------------|
D|7-7-7-7-7-7-7-7-| x8
A|----------------|
E|----------------|

Verse 2:
G|----------------|----------------|----------------|----------------|
D|----------------|----------------|----------------|----------------| x2
A|----------------|----------------|7-7-7----7---7--|7-7-7-----------|
E|7-7-7----7---7-\|2-2-2----2---2-/|----------------|------0-0-0-0-0/|

Verse 3:
G|----------------|----------------|----------------|----------------|
D|----------------|----------------|----------------|----------------|
A|----------------|----------------|----------------|----------------|
E|7-7---7-\-------|----------------|----------------|----------------|

G|----------------|----------------|----------------|----------------|
D|----------------|----------------|----------------|----------------|
A|----------------|----------------|----------------|----------------|
E|----------------|----------------|----------------|----------------|

Pre-Chorus:
G|----------------|----------------|----------------|----------------|
D|----------------|----------------|----------------|----------------|
A|----------------|7-7-7-7-7-7-7-7-|----------------|9-9-9-9-9-9-----|
E|4-4-4-4-4-4-4-4/|----------------|7-7-7-7-7-7-7-7/|------------7-7-|

G|----------------|----------------|----------------|----------------|
D|----------------|----------------|----------------|----------------|
A|----------------|7-7-7-7-7-7-7-7-|----------------|9-9-9-9-9-9-9-9-|
E|4-4-4-4-4-4-4-4/|----------------|7-7-7-7-7-7-7-7/|----------------|

Chorus 1:
G|----------------|----------------|----------------|----------------|
D|----------------|----------------|----------------|----------------|
A|----------------|2-2-2----2---2--|----------------|----------------|
E|0-0-0----0---0--|----------------|2-2-2----2---2--|2-2-2----2---2--|

G|----------------|----------------|----------------|----------------|
D|----------------|----------------|----------------|----------------|
A|----------------|----------------|----------------|4-4-4-4-4-4-4-4-|
E|0-0-0----0---0--|4-4-4----4---4--|2-2-2----2---2--|----------------|

Chorus 2:
G|----------------|----------------|----------------|----------------|
D|----------------|----------------|----------------|----------------|
A|----------------|2-2-2----2---2--|----------------|----------------|
E|0-0-0----0---0--|----------------|2-2-2----2---2--|2-2-2----2---2--|

G|----------------|----------------|----------------|----------------|
D|----------------|----------------|----------------|----------------|
A|----------------|----------------|----------------|----------------|
E|0-0-0----0---0--|4-4-4----4---4--|2-2-2----2---2--|3-3-3-3-3-3-3-3-|

Bridge:
G|----------------|----------------|----------------|----------------|
D|----------------|----------------|----------------|----------------|
A|11--------------|----------------|----------------|----------------|
E|----------------|12--------------|----------------|----------------|

G|----------------|----------------|----------------|----------------|
D|----------------|----------------|----------------|----------------| x3
A|----------------|----------------|----------------|----------------|
E|----------------|----------------|----------------|----------------|

G|----------------|----------------|----------------|----------------|
D|----------------|----------------|----------------|----------------| x2
A|----------------|----------------|2-2-2-2-2-2-2-2-|----------------|
E|4-4-4-4-4-4-4-4-|0-0-0-0-0-0-0-0-|----------------|2-2-2-2-2-2-2-2-|

G|----------------|----------------|----------------|----------------|
D|------6-6-6-4-4-|------6-6-6-4-4-|------6-6-6-4-4-|4-4-4-9-9-9-8-8-| x2
A|----------------|7-7-7-----------|2-2-2-----------|----------------|
E|4-4-4-----------|----------------|----------------|----------------|

Outro:
G|----------------|----------------|----------------|----------------|
D|----------------|----------------|----------------|----------------| x4
A|------7-7-7-6-6-|------6-6-6-4-4-|2-2-2-6-6-6-4-4-|----------------|
E|4-4-4-----------|0-0-0-----------|----------------|2-2-2-7-7-7-6-6-|

G|----------------|
D|----------------|
A|----------------|
E|0---------------|


| /  slide up
| \  slide down
| h  hammer-on
| p  pull-off
| ~  vibrato
| +  harmonic
| x  Mute note
===============================================================================
            
Submit corrections

comments powered by Disqus
↑ Back to top | Hillsongs Bass for Solution. Lyrics for acoustic guitar and electric guitar. Tablatures and chords are parodies/interpretations of the original songs. You may use it for private study, scholarship, research or language learning purposes only