» » »

Shout Unto God Bass tabs (ver.1)

Artists:  A B C D E F G H I J K L M N O P Q R S T U V W X Y Z # 

Shout Unto God Bass tabs (ver.1)

Hillsongs
Rating:
0/5 (0 votes)

Hard to play? Try these video lessons and learn fast.
                Hillsong United
Shout Unto God
Look To You
2005

Bass

Tuning: Standard EADG

Intro/Verse:
G|-6h7------6h7-11\9--9/11--11\9\6-6h7-------7\6-----9----11\6/7-|
D|--------7--------------------------------7-----7/9-------------|
A|---------------------------------------------------------------|
E|---------------------------------------------------------------|


Chorus:
G|-----------------|-----------------|-----------------|-1-1-1---------1-|
D|-----------------|-2-2-2-2-2-2-2-2-|-4-4-4---------4-|-------------2---|
A|-5-5-5-5-5-5-5-5-|-----------------|-------------5---|-----------------|
E|-----------------|-----------------|-------2-2-2-----|-------4-4-4-----|
         x2               x2                 x2                  x2
            
Hard to play? Try these video lessons and learn fast. | Correct




comments powered by Disqus
↑ Back to top | Tablatures and chords are parodies/interpretations of the original songs. You may use it for private study, scholarship, research or language learning purposes only