» » »

Shout Of The King Bass tabs (ver.1)

Artists:  A B C D E F G H I J K L M N O P Q R S T U V W X Y Z # 

Shout Of The King Bass tabs (ver.1)

Hillsongs
Rating:
0/5 (0 votes)

Hard to play? Try these video lessons and learn fast.
                -----------------------------------------------------------------
SHOUT OF THE KING - Hillsong
-----------------------------------------------------------------


Tuning: Standard

intro
all 8th notes
G|---------------------------------------------------------------| x2
D|---------------------------------------------------------------|
A|--------------------------------3-3-3-3-3-3-3-3-5-5-5-5-5-5-5-5|
E|0-0-0-0-2-2-2-2-3-3-3-3-5-5-5-5--------------------------------|

verses
  q e e e q q.h q q q q  q e e e q q.h q q q q
G|--------5----------------------5-------------| repeat as needed
D|--5h6h7---7--------------5h6h7---7-----------|
A|7-----------5-3-3-5-5--7-----------5-3-3-5-5-|
E|---------------------------------------------|

  q e e e q q.h q q q q  q e e e q q.h q q q q
G|--------5----------------------5-------------| last time before chorus
D|--5h6h7---7--------------5h6h7---7-----------|
A|7-----------5-3-3-5-5--7-----------5-3-3-0-0-|
E|---------------------------------------------|

chorus
all 8th notes
G|---------------------------------------------------------------| x2
D|---------------------------------------------------------------|
A|--------------------------------3-3-3-3-3-3-3-3-5-5-5-5-5-5-5-5|
E|0-0-0-0-2-2-2-2-3-3-3-3-5-5-5-5--------------------------------|

bridge
all quarter notes
G|-----------------------------------------------------------------|
D|-----------------------------------------------------------------|
A|-----------------3-3-3-3-5-5-5-5------------------3-3-3-3-5-5-5-5|
E|5-5-5-5-3-3-3-/7-----------------5-5-5-5-3-3-3-/7----------------|

| /  slide up
| \  slide down
| h  hammer-on
| p  pull-off
| ~  vibrato
| +  harmonic
| x  Mute note
            
Hard to play? Try these video lessons and learn fast. | Correct




comments powered by Disqus
↑ Back to top | Tablatures and chords are parodies/interpretations of the original songs. You may use it for private study, scholarship, research or language learning purposes only