» » »

Hillsongs, Running Tabs (ver.1)

Artists:  A B C D E F G H I J K L M N O P Q R S T U V W X Y Z # 

Running Tabs (ver.1)

Hillsongs Tabs
 Rating:
4/5 (4 votes)
Running lessons Tabs too difficult? Try these video lessons and learn fast
                This is on the new album Cornerstone.  It's a fun song to play and it's pretty 
simple once you get it down.  It's got a triplet feel to it and the chorus can be 
a bit tricky for the lead.  But just practice with a metronome or the song and you'll get it

Intro Lead
e|-14--14--------------14--14---------|
b|---16--16--14\12-------16--16--7/9--|
g|------------------------------------|
d|------------------------------------|
a|------------------------------------|
E|------------------------------------|

Prechorus Lead (triplets)
e|------------------------------------|
b|-12-12-12-12-12-12-12-12-12-12-12-12|
g|------------------------------------|
d|------------------------------------|
a|------------------------------------|
E|------------------------------------|

Chorus Lead (triplet feel)
e|--------------------------16-------------|
b|-19p16---19p16---19p16-----19p16---------|
g|-------16------16------16---------18p16--|
d|-----------------------------------------|
a|-----------------------------------------|
E|-----------------------------------------|

Bridge
e|----------------|
b|----------------|
g|-6--8-9--4------|
d|-x--x-x--x--4---|
a|-4--6-7--2--x---|
E|------------2---|



Chords - Intro, Pre-Chorus, Chorus

||B---|E---|G#m---|--E-||

Bridge

||C#m---|E---|B---|F#---||



That's pretty much it
Enjoy!
            
Submit corrections

comments powered by Disqus
↑ Back to top | Hillsongs Tabs for Running. Lyrics for acoustic guitar and electric guitar. Tablatures and chords are parodies/interpretations of the original songs. You may use it for private study, scholarship, research or language learning purposes only