» » »

Hillsongs, Run Bass tabs (ver.1)

Artists:  A B C D E F G H I J K L M N O P Q R S T U V W X Y Z # 

Run Bass tabs (ver.1)

Hillsongs Tabs
 Rating:
4/5 (4 votes)
Run lessons Tabs too difficult? Try these video lessons and learn fast
1
                -------------------------------------------------------------------------------
			     Run - Hillsong
-------------------------------------------------------------------------------


Tuning: Standard

Drums First - 4 bars
INTRO
G|----------------------------------------|
D|--11111-----4444466\11111---4444466\1---|
A|--------222--------------222------------|
E|----------------------------------------| x2

VERSE 1
G|--8-8-8-8-8---------------------------|
D|------------9-9-9---------------------|
A|------------------9-9-9-9-9-11-11-11--|
E|--------------------------------------| x2

G|-------8---6-------------------------|
D|--9---------------------99999-11-11--|
A|---------------22222222--------------|
E|-------------------------------------|

G|-----------------------------------------------------------------------------------|
D|-----------------------------------------------------------------------------------|
A|-66666-222-----------66666-222-----------2--6--4-/1414141414141414141414161614-----|
E|-----------22222-444-----------22222-444--------------------------------------1614-|

CHORUS 1
G|-----------------------------------------------------------------------|
D|-----------------11111111----------------------------------------------|
A|---------44444444--------22222222--------------------------------------|
E|-22222222------------------------22222222444/161616161611111111777777--|
                                                         ^elevens^
VERSE 2
G|---------------------|
D|---------------------|
A|-66666-222-----------|
E|----------22222-444--| x2

G|------------------------------------------------------------------------------|
D|-----------------------------------------------------------------------13-----|
A|-6-6---2-----------6--2----------2----666-444-/141414141414141416--1614--14---|
E|----------2----4---------2--2-44-------------------------------------------16-|
  ^bring it down a little^ (dynamics)

CHORUS 1
G|-----------------------------------------------------------------------|
D|-----------------11111111----------------------------------------------|
A|---------44444444--------22222244--------------------------------------|
E|-22222222------------------------2222--------------------------|
(To Be continued)
G|---------------------------------------------------------------------------|
D|---------------------------------------------------------------------------|
A|---------------------------------------------------------------------------|
E|---------------------------------------------------------------------------|

G|---------------------------------------------------------------------------|
D|---------------------------------------------------------------------------|
A|---------------------------------------------------------------------------|
E|---------------------------------------------------------------------------|


| /  slide up
| \  slide down
| h  hammer-on
| p  pull-off
| ~  vibrato
| +  harmonic
| x  Mute note
===============================================================================
            
Submit corrections

comments powered by Disqus
↑ Back to top | Hillsongs Bass for Run. Lyrics for acoustic guitar and electric guitar. 1 Tablatures and chords are parodies/interpretations of the original songs. You may use it for private study, scholarship, research or language learning purposes only