» » »

Hillsongs, Rise Tabs (ver.1)

Artists:  A B C D E F G H I J K L M N O P Q R S T U V W X Y Z # 

Rise Tabs (ver.1)

Hillsongs Tabs
Rating:
0/5 (0 votes)
Rise lessons Tabs too difficult? Try these video lessons and learn fast
                First song off of Live's latest CD "God is Able". Super simple, classic Hillsong. Love it.
Effects: clean; with delay

Chord Chart:

    C1  G  Am  F   C2     
e|-----3---5---1---0---|
B|-5---3---5---1---1---|
G|-5---4---5---2---0---|
D|-5---5---7---3---2---|
A|-3---5---7---3---3---|
E|-----3---5---1---0---|



INTRO (0:00 - 0:28)

|----------------------8-------------|
|------------------------------------|
|-------9------------9--------10-9---|     4 times (until Joel Houston comes in) 
|----10------------7--------10-------|
|-------------------------8----------|
|--8---------------------------------|


VERSE (0:28 - 1:20)

|------------------------------------|
|---------------------10-------------|
|-------9-----------9---------10-----|     10 times
|----10-----------7---------10-------|
|-------------------------8----------|
|--8---------------------------------|


PRE-CHORUS (1:21 - 1:42)          "love and mercy is on the rise ..."

|------------------------------------|
|---------5----------------8p5-------|
|-5---7p5---5-7p5----5-7p5-----7p5---|     once
|------------------------------------|
|------------------------------------|
|------------------------------------|

|------------------------------------|
|---------8p5--------------8p5-------|
|-5---7p5-----7p5----5-7p5-----7p5---|     7 times
|------------------------------------|
|------------------------------------|
|------------------------------------|


VERSE (1:42 - 1:52)               back to the intro riff

|----------------------8-------------|
|------------------------------------|
|-------9------------9--------10-9---|     2 times
|----10------------7--------10-------|
|-------------------------8----------|
|--8---------------------------------|


PRE-CHORUS (1:52 - 2:03)

|------------------------------------|
|---------8p5--------------8p5-------|
|-5---7p5-----7p5----5-7p5-----7p5---|     4 times
|------------------------------------|
|------------------------------------|
|------------------------------------|


CHORUS (2:03 - 2:24)

Lead sounds something like this:
(I split up the 13's and 15's so it's easier to read)
|------------|------|--------|-----|
|131313131313|151515|13131313|151515|
|121212121212|121212|12121212|121212|    4 times
|------------|------|-------|------|
|------------|------|-------|------|
|------------|------|-------|------|

C                                          G
    We will hold we will love      We will fall in surrender
Am                                           F                          C
    We will rise we will run         We will live to declare Your Name 
       G                    Am        F                       C
    Forever to bring You praise    Forever we'll lift up Your Name



POST-CHORUS (2:25 - 2:35)         after "... name"

|--------------------------------------|
|-----------------xx13-----\8-----/17--|
|--------------------------------------|    2 times
|--------------------------------------|
|--------------------------------------|
|--------------------------------------|


VERSE (2:35-2:45)

|---------------------------------12---|
|-------------------13-----------------|
|---------------------------12---------|    (same thing as above, just no slides)
|--------------------------------------|
|--------------------------------------|
|--------------------------------------|

|--------------------------------------|
|-------------------13-----------------|
|---------------------------12---------|
|--------------------------------------|
|--------------------------------------|
|--------------------------------------|


PRE-CHORUS (2:45 - 2:55)

|------------------------------------|
|---------8p5--------------8p5-------|
|-5---7p5-----7p5----5-7p5-----7p5---|     2 times
|------------------------------------|
|------------------------------------|
|------------------------------------|


CHORUS (2:56 - 3:38)

Lead
|------------|------|--------|-----|
|131313131313|151515|13131313|151515|
|121212121212|121212|12121212|121212|    8 times
|------------|------|-------|------|
|------------|------|-------|------|
|------------|------|-------|------|

C                                          G
    We will hold we will love      We will fall in surrender
Am                                           F                          C
    We will rise we will run         We will live to declare Your Name 
       G                    Am        F             C
    Forever to bring You praise    Jesus Jesus
C                                          G
    We will hold we will love      We will fall in surrender
Am                                           F                          C
    We will rise we will run         We will live to declare Your Name 
       G                    Am        F                       C
    Forever to bring You praise    Forever we'll lift up Your Name
    


POST-CHORUS (3:38 - 3:48)

|--------------------------------------|
|-----------------xx13-----\8-----/17--|
|--------------------------------------|
|--------------------------------------|
|--------------------------------------|
|--------------------------------------|

|--------------------------------------|
|-----------------xx13-----\8----------|
|--------------------------------------|
|--------------------------------------|
|--------------------------------------|
|--------------------------------------|


BRIDGE (3:48 - 4:30)

|------------------------------------|
|---------8p5--------------8p5-------|
|-5---7p5-----7p5----5-7p5-----7p5---|     16 times
|------------------------------------|
|------------------------------------|
|------------------------------------|

meanwhile

|-----------------------------|
|-----------------------------|
|-----------------------------|
|-----------------------------|
|-3---------------------------|
|--------3------0------1------|
then
|-----------------------------|
|-------------------1------1--|
|-----5-----------------------|
|------------4----2------3----|    3 times
|---7------5------------------|
|-5------3------0------1------|


CHORUS (4:30 - 4:51)

C                                          G
    We will hold we will love      We will fall in surrender
Am                                           F                          C
    We will rise we will run         We will live to declare Your Name 
       G                    Am       F                      
    Forever to bring You praise    Yeah Yeah Yeah



OUTRO (4:52 - 6:01)

C                          G  
    Swing the doors wider      Sound the praise louder
C2                          F                         Am               G                 C2
    All our hearts cry out      For the glory of Your Name      Our God You will never fail
       F
     Jesus Jesus
C                          G
    Lift the Name higher       Shine the light brighter 
C2                          F                         Am                   G              C2
    All the earth cry out       For the glory of Your Name       Our God You will never fail
        F
    Forever we'll lift up Your Name


|------------------------------------|
|---------------------10-------------|
|-------9-----------9---------10-----|     2 times
|----10-----------7---------10-------|
|-------------------------8----------|
|--8---------------------------------|
meanwhile
|--------------------------------------|
|-----------------xx13-----\8-----/17--|
|--------------------------------------|    2 times
|--------------------------------------|
|--------------------------------------|
|--------------------------------------|



There you have it.
99% sure this is all accurate.


Enjoy.  
            
Submit corrections

comments powered by Disqus
↑ Back to top | Hillsongs Tabs for Rise. Lyrics for acoustic guitar and electric guitar. Tablatures and chords are parodies/interpretations of the original songs. You may use it for private study, scholarship, research or language learning purposes only