» » »

Reaching For You Tabs (ver.1)

Artists:  A B C D E F G H I J K L M N O P Q R S T U V W X Y Z # 

Reaching For You Tabs (ver.1)

Hillsongs
Rating:
0/5 (0 votes)

Tabs too difficult? Try these video lessons and learn fast.
                  Reaching for you
  solo part:distorted

e|-------------------------------------------------------------------------|
B|----------------------------8-8-8----------------------------------------|
G|-----------5-7*-5-5---5-7/9-------9\7-5-7/9-7-5-4h5p4--------------------|
D|-------5-7---------------------------------------------------------------|
A|-3-5/7-------------------------------------------------------------------|
E|-------------------------------------------------------------------------|

e|-------------------------------------------------------------------------|
B|-------------------------------------------------------------------------|
G|-------------------------------------------------------------------------|
D|--7-5/7------------------------------------------------------------------|
A|---7-----7\5-3-5/7-5p4---3-----0-----------------------------------------|
E|-----------------------5---5p3-------------------------------------------|

e|-------------------------------------------------------------------------|
B|-----------------------10-12-13-12-10h12-8-------------------------------|
G|--------9-10-12-9-10-12--------------------------------------------------|
D|-9h10h12-----------------------------------------------------------------|
A|-------------------------------------------------------------------------|
E|-------------------------------------------------------------------------|

e|--------------------8-10-12-12-12-15p12-12-12-15p12-12-12h13------------|
B|--10-8------------8-----------------------------------------15-13-15*---|
G|-7/9-7--9-7-5-7/9-------------------------------------------------------|
D|------------------------------------------------------------------------|
A|------------------------------------------------------------------------|
E|------------------------------------------------------------------------|

e|-15-15-15-----12p10---10------------------------------------------------|
B|-15*---15*-13-------13---13-11-13-15*-----------------------------------|
G|------------------------------------------------------------------------|
D|------------------------------------------------------------------------|
A|------------------------------------------------------------------------|
E|------------------------------------------------------------------------|

e|--------------13-12-----------------------------------------------------|
B|--------13-15-------15-13-12---13p12------------------------------------|
G|------12-----------------------------14-12------------------------------|
D|-12/14------------------------------------------------------------------|
A|------------------------------------------------------------------------|
E|------------------------------------------------------------------------|

e|----12-10-9-7-------------------15-15-15--------------------------------|
B|--------------------------------15*---15*-------------------------------|
G|-10/12-10-9-7-----------------------------------------------------------|
D|------------------------------------------------------------------------|
A|------------------------------------------------------------------------|
E|------------------------------------------------------------------------|


    ayos ba mga pare???   ewan Kung tama 'To..
    tinuro lang sakin 'to....
            
Tabs too difficult? Try these video lessons and learn fast.


comments powered by Disqus
↑ Back to top | Tablatures and chords are parodies/interpretations of the original songs. You may use it for private study, scholarship, research or language learning purposes only