>
 >
Reaching For You 2

Reaching For You 2 Guitar Tabs

Hillsongs - Reaching For You 2 chords, tabs, tablatures, lyrics

Guitar lessons | Add/correct | Request | Top 50 tabs Artists:  A B C D E F G H I J K L M N O P Q R S T U V W X Y Z 0-9

Reaching For You 2 Guitar Tabs – Hillsongs

CD, Sheet music, Poster

Do you like Reaching For You 2? Share with your friends now
ChordsChords v2TabsTabs v2
-------------------------------------------------------------------------------
                             Reaching For You - Hillsong
-------------------------------------------------------------------------------

Tuning: Standard

e|---------------------------------------------------------------------------|
B|--------------------------8-8-8--------------------------------------------|
G|------------7b-5-5--7-9---------9-7--5-7-9---------------------------------|
D|-----5-7-5-----------------------------------------------------------------|
A|-5-7-----------------------------------------------------------------------|
E|---------------------------------------------------------------------------|

e|---------------------------------------------------------------------------|
B|---------------------------------------------------------------------------|
G|--7--5-4h-5h-4h------------------------------------------------------------|
D|----------------5----5-7---------------------------------------------------|
A|-------------------7-----7-5--3-5--7-5-3----3------------------------------|
E|------------------------------------------5----5--3--5-5-------------------|

e|---------------------------------------------------------------------------|
B|-----------------------------------12-13-12--------------------------------|
G|-----------9h-10h-9----9-10-12-14-----------14b-12-14-12-------------------|
D|-9-10--12-----------12-----------------------------14------14\-12-10-------|
A|---------------------------------------------------------------------------|
E|---------------------------------------------------------------------------|

e|----------------------15-----------15-------------------------------15-----|
B|-------------17-17-17----17-17-17-----17-17--17-15-13-15/--17-17-17--------|
G|---------12----------------------------------------------------------------|
D|-12--14--------------------------------------------------------------------|
A|---------------------------------------------------------------------------|
E|---------------------------------------------------------------------------|

e|-----------------------------------------------------------12-13-12--------|
B|-17-17--17--15\--13-15/--17--13-15----13--15b-----------13--------15-13-12-|
G|-----------------------------------14---------9-10-12-14-------------------|
D|---------------------------------------------------------------------------|
A|---------------------------------------------------------------------------|
E|---------------------------------------------------------------------------|

e|-----------10-12--12-12-12-12-10---10-10-10--8-----------------------------|
B|-----------10-12--12-12-12-12-10---10-10-10--8---15b--13-------------------|
G|--14b--12------------------------------------------------------------------|
D|---------------------------------------------------------------------------|
A|---------------------------------------------------------------------------|
E|---------------------------------------------------------------------------|



************************************

| /   slide up
| \   slide down
| h   hammer-on
| p   pull-off
| ~   vibrato
| +   harmonic
| x   Mute note
| b   Bend
| pb  Pre-bend
| br  Bend release
| pbr Pre-bend release
| brb Bend release bend

************************************





Comments


Popular Hillsongs tabs & chords
All Day 1 Bass Tabs
All My Hope Chords
Came To My Rescue 5 Chords
From God Above 1 Chords
Here I Am Waiting Chords
One Way 2 Chords
Sing To The Lord Chords
You 2 Chords
All Day 3 Tabs
Perfect Love Intro Tabs


Song lyrics



↑ Back to top | Tablatures and chords are parodies/interpretations of the original songs. You may use it for private study, scholarship, research or language learning purposes only
© 2014 AZChords.com Contact us | Privacy policy | DMCA | Add/correct tabs | Request tabs | Top 50 tabs