» » »

Open My Eyes Tabs (ver.1)

Artists:  A B C D E F G H I J K L M N O P Q R S T U V W X Y Z # 

Open My Eyes Tabs (ver.1)

Hillsongs
Rating:
0/5 (0 votes)

Hard to play? Try these video lessons and learn fast.
                Intro/verse
D|-6-| keep repeating

Bridge
------|
-9--8-|
-8--8-|   pluck these two chords
-6--6-|
------|
------|

In the second verse theres another guitar part that goes like this
E|-15-15-15-16-16-16-15-15-15-16-16-16-16-16-20---|
E|-15-15-15-16-16-16-15-15-15-16-16-16------------|

The second time they play the bridge theres another part that goes like this.
-----------------------------------------------------|
-18(x3)--16(x3)-----18(x3)--16(x3)-------------------|
-----15(x3)--13(x...)--15(x3)--13(x3)-12(x2)-10(x2)--|     X2
-----------------------------------------------------|
-----------------------------------------------------|
-----------------------------------------------------|

chrous
------------------------------------------------------|
------------------------------------------------------|
-12---13---5---8---12---13---5---8---6--5---[6]-------|
---------------------------------------------[x...]---|
-10---11---3---6---10---11---3---6---4--3---[4]-------|
------------------------------------------------------|

---------------------|
---11-13-11-13-------|
---------------------|  Repeat each note several times
---------------------|
---------------------|
---------------------|

Hope this helps!
have fun and God Bless†
            
Hard to play? Try these video lessons and learn fast. | Correct




comments powered by Disqus
↑ Back to top | Tablatures and chords are parodies/interpretations of the original songs. You may use it for private study, scholarship, research or language learning purposes only