>
 >
One Day

One Day Guitar Tabs

Hillsongs - One Day chords, tabs, tablatures, lyrics

Guitar lessons | Add/correct | Request | Top 50 tabs Artists:  A B C D E F G H I J K L M N O P Q R S T U V W X Y Z 0-9

One Day Guitar Tabs – Hillsongs

CD, Sheet music, Poster

Do you like One Day? Share with your friends now
ChordsTabsUkulele
ONE DAY
HILLSONG MUSIC AUSTRALIA
Tab done by: R. Rosal (SWITCHBLADE of South Cotabato,Phillipines)
It's not 100%  correct ... just my own interpretation of the song:
INTRO:  Riff   A    (4X)                                        Riff   B   (4X)
           A                                                                        A         E        F#m   D
|----------------------------------------12-12-12-12--|--------------------------------------|
|-------7p10-10-10---7p10-10-10--10-10-10-10--|-----10-10---9--9---7--7---5--5---------------|
|-------7p- 9- 9- 9----7p- 9- 9- 9---- 9-- 9--9-- 9--|-------9--9---9--9---6--6---5--5-------|
|-------7---7--7--7----7---7--7--7----7---7--7---7--|-------7--7---9--9---4--4---5--5--------|
|---------------------------------------------------------|-------7--7---7--7---4--4---7--7--|
|---------------------------------------------------------|----------------------------------|
VERSE 1:
        A                                 F#m                       G                                            D
|---------------------------------5---------------------7----------------------------------2--|
|-----10-------------------------7---------------------8----------------------------------3---|
|------9--------------------------6--------------------7----------------------------------2---|
|------7--------------------------------------------------------------------------------------|
|------7--------------------------------------------------------------------------------------|
|---------------------------------------------------------------------------------------------|
      More than I could hope or dream of, You have poured Your favor on me
        A                                 F#m                       G                 D
|---------------------------------5---------------------7--------------2-----------------------------------------|
|-----10-------------------------7---------------------8--------------3------------------------------------------|
|------9-------------------------6---------------------7--------------2----------------------------1-1-1-1-1-----|
|------7---------------------------------------------------------------------------------------------2-2-2-2-2---|
|------7---------------------------------------------------------------------------------------------2-2-2-2-2---|
|-----------------------------------------------------------------------------------------------------0-0-0-0-0--|
     One day in the house of God is, Better than a thousand places in the world.
CHORUS:
   DM7  E       C#m          F#m      DM7  E                  C#m        F#m
|--2--2--4--4---4--4--------2--2------2--2--4--4------------4--4-------2--2--|
|--2--2--5--5---5--5--------2--2------2--2--5--5------------5--5-------2--2--|
|--2--2--4--4---6--6--------2--2------2--2--4--4------------6--6-------2--2--|
|--0--0--2--2---6--6--------4--4------0--0--2--2------------6--6-------4--4--|
|----------------------------------------------------------------------------|
|----------------------------------------------------------------------------|
So blessed I can't contain it, So much You've got to give it away
   DM7  E       C#m          F#m                   G             D               E7                             A
|--2--2--4--4---4--4--------2--2---------------33------22--------000---------------00-----------------|
|--2--2--5--5---5--5--------2--2---------------3---3------3---3--------0---0---0---------------2---2-------|
|--2--2--4--4---6--6--------2--2---------------0---0------2---2--------1---1---1---------------2---2-------|
|--0--0--2--2---6--6--------4--4---------------0---0------0---0--------0---0---0---------------2---2-------|
|--------------------------------------------------2---2--------------------2---2---2---------------0---0--|
|--------------------------------------------------3---3--------------------0---0---0----------------------|
Your love is all for me to live now, You are more than enough for me.

Back to Intro using Riff B:
Back to Verse:
Guitar 1 @ 2 use the same chords pattern
        A                                 F#m                       G                                            D
|---------------------------------5---------------------7----------------------------------2--|
|-----10-------------------------7---------------------8----------------------------------3---|
|------9--------------------------6--------------------7----------------------------------2---|
|------7--------------------------------------------------------------------------------------|
|------7--------------------------------------------------------------------------------------|
|---------------------------------------------------------------------------------------------|




 Guitar 3:
|----------------------------------2-----------------------------------------------------3-------2--------|
|------2---------------------------2-------------------------------3---------------3-------3---------3----|
|------2---------------------------2-----------------------------------0-------------------------------2--|
|------2---------------------------4--------------------------0-------------------------------------------|
|------0---------------------------4----------------------2-----------------------------------------------|
|-----------------------------------2-------------------3-------------------------------------------------|
     More than I could hope or dream of, You have poured Your favor on me
        A                                 F#m                       G                 D
|---------------------------------5---------------------7--------------2----------------------------------------|
|-----10-------------------------7---------------------8--------------3-----------------------------------------|
|------9--------------------------6---------------------7--------------2----------------------------1-1-1-1-1---|
|------7---------------------------------------------------------------------------------------------2-2-2-2-2--|
|------7---------------------------------------------------------------------------------------------2-2-2-2-2--|
|----------------------------------------------------------------------------------------------------0-0-0-0-0--|
     One day in the house of God is, Better than a thousand places in the world.
Guitar 3:
|-----0---0---0--0---------------------------------2----------------2--2--2--2----------------7-7-7-7-7-7---|
|-----2---2---2--2---------2---2--2--2-----------2----------------3--3--3--3----------------9-9-9-9-9-9-----|
|-----2---2---2--2---------2---2--2--2-----------0----------------2--2--2--2----------------9-9-9-9-9-9-----|
|-----2---2---2--2---------4---4--4--4----------------------------0--0--0--0-----------------9-9-9-9-9-9----|
|-----0---0---0--0---------4---4--4--4---------------------------------------------------------7-7-7-7-7-7--|
|-----------------------------------------------------------------------------------------------------------|

Repeat Chorus 2x
Interlude:
    A                Asus                     A               Asus                                                4X
|--------------------------------------------------------------------------|
|---5--5--5--5--3--3--3--2--3--2--3----5--5--5--5--3--3--3--2--3--2--0--2--|
|---2--2--2--2--2--2--2--2--2--2--2----2--2--2--2--2--2--2--2--2--2--2--2--|
|--------------------------------------------------------------------------|
|--------------------------------------------------------------------------|
|--------------------------------------------------------------------------|

Guitar 2: Riff B
Then Guitar 3:
|--------------------------------------------------------|
|-----5-------------3----------------------5----------3--|
|-----2-------------2----------------------2----------2--|
|--------------------------------------------------------|
|--------------------------------------------------------|
|--------------------------------------------------------|
Lord,  You're more than enough for me........
Break:
Guitar 1:
|-----12---12---12---12---12---12---12---12---12---12---12---12---12--------|
|-----10---10---10---10---10---10---10---10---10---10---10---10---10--------|
|------9-----9----9----9-----9----9-----9----9-----9----9-----9-----9----9--|
|---------------------------------------------------------------------------|
|---------------------------------------------------------------------------|
|---------------------------------------------------------------------------|
So blessed I can't contain it, So much You've got to give it away
Your love is all for me to live now
             G             D               E7                             A
|---------33------22--------000---------------00--------------------|
|---------3---3------3---3--------0---0---0---------------2---2----------|
|---------0---0------2---2--------1---1---1---------------2---2----------|
|---------0---0------0---0--------0---0---0---------------2---2----------|
|---------2---2--------------------2---2---2---------------0---0---------|
|---------3---3--------------------0---0---0-----------------------------|
        You are more than enough               for me
Repeat  Chorus til End.





Comments


Popular Hillsongs tabs & chords
By Your Side Bass Tabs
Light Will Shine Bass Tabs
As The Deer 4 Chords
Desert Song 2 Chords
From The Inside Out 5 Chords
Man Of Sorrows 4 Chords
One Way 2 Tabs
What The World Will Never Take 4 Tabs
Amazing Love Ukulele
Freedom We Know Ukulele


Song lyrics



↑ Back to top | Tablatures and chords are parodies/interpretations of the original songs. You may use it for private study, scholarship, research or language learning purposes only
© 2014 AZChords.com Contact us | Privacy policy | DMCA | Add/correct tabs | Request tabs | Top 50 tabs