>
 >
Oh You Bring

Oh You Bring Guitar Tabs

Hillsongs - Oh You Bring chords, tabs, tablatures, lyrics

Guitar lessons | Add/correct | Request | Top 50 tabs Artists:  A B C D E F G H I J K L M N O P Q R S T U V W X Y Z 0-9

Oh You Bring Guitar Tabs – Hillsongs

CD, Sheet music, Poster

Do you like Oh You Bring? Share with your friends now
ChordsTabsUkulele
Tuning: Standard



In fact, there are 3 guitars in this song. I'll try to put the accurate sound for the 3.

Enjoy !


Guitar 1, Capo 5. Use picking.

Intro:

e|-2-----2-2-----2-2-----2-----3---2---------2-----------2------------------|
B|-----------------------------------3-----------3--------------------------|
G|-----2-------2-------2-----------------4-----------4----------------------|
D|-0-0-0-0-0-0-0-0-0-0-0-0-0/2-2-2------------------------------------------|
A|-----------------------------------2-2---2---2-2-2---2---2----------------|
E|--------------------------------------------------------------------------|

e|---------2----------------------------------------------------------------|
B|-3------------------------------------------------------------------------|
G|-----4-------------7---5--------------------------------------------------|
D|--------------------------------------------------------------------------|
A|-2-2---2---2-2/4-4---4---4------------------------------------------------|
E|--------------------------------------------------------------------------|

Verses (x2):

e|-2-----2-2--------0-------0--------3-------3---3-------2------------------|
B|----------------------2----------------5----------5-----------------------|
G|-----2------(x4)--------------(x4)----------------------------------------|
D|-0-0-0-0-0-------------------------2-2---2---2-2-2---2--------------------|
A|------------------0-0---0---0---------------------------------------------|
E|--------------------------------------------------------------------------|

e|---------2-----------3------------2-----------2---------------------------|
B|-3-----------3------------3-----------3-----------------------------------|
G|-----4-----------4------------4-----------4-------------------------------|
D|--------------------------------------------------------------------------|
A|-2-2---2---2-2-2---2------------------------------------------------------|
E|--------------------------3-3---3---3-3-3---3---3-------------------------|

e|---------5-----------5----------------------------------------------------|
B|-2-----------2------------------------------------------------------------|
G|-----2-----------2--------------------------------------------------------|
D|--------------------------------------------------------------------------|
A|-0-0---0-----0-0---0------------------------------------------------------|
E|--------------------------------------------------------------------------|


Pre-chorus:

e|---------2------------2----------5--------5----2-----2----0-----0---------|
B|-3-----------3-------------2--------2--------------2----------------------|
G|-------------------------------2--------2---------------------2-----------|
D|-----4-----------4--------------------------------------------------------|
A|---------------------------0-0------0-0--------2-2--------0-0-------------|
E|-3-3---3-----3-3----3-----------------------------------------------------|

e|-2-----3-2---------------2---------2--------0-----------------------------|
B|-----------------3-----------3--------------------------------------------|
G|-----4--------------------------------------------------------------------|
D|---------------------4-----------4----------------------------------------|
A|-2-2----------------------------------------0-----------------------------|
E|-----------------3-3---3-----3-3------------------------------------------|


Instrumental:

Guitar 1 (capo 5):

e|----------10---------------10---------------------------------------------|
B|-10-12-8--------------12-8------------------------------------------------|
G|--------------------------------------------------------------------------|


Guitar 2 (no capo): G, Am, Em, D (x4)


Guitar 3 (no capo):

e|--------------------------------------------------------------------------|
B|-----------------------------------------10-8-8-8-8-8/12-12-12-12-12-12---|
G|--------------------------------------------------------------------------|
D|--9\4-5/9-10-9-7-5-5/9-9-9-9-9-9-9-9-9------------------------------------|
A|--------------------------------------------------------------------------|
E|--------------------------------------------------------------------------|

e|--------------------------------------------------------------------------|
B|-12-12-12-12-13-12-10-8-8-8/12-12-12-12-12-12-12-12-12-10-13-12-----------|
G|--------------------------------------------------------------------------|
D|--------------------------------------------------------------------------|
A|--------------------------------------------------------------------------|
E|--------------------------------------------------------------------------|



Bridge:

Guitar 1 (play the verses)

Guitar 2 & 3: G, D, Am, Em, C


Ending:

Guitar 1 (play pre-chorus then intro).


************************************

| /   slide up
| \   slide down
| h   hammer-on
| p   pull-off
| ~   vibrato
| +   harmonic
| x   Mute note
| b   Bend
| pb  Pre-bend
| br  Bend release
| pbr Pre-bend release
| brb Bend release bend

************************************





Comments


Popular Hillsongs tabs & chords
Forever 1 Chords
Here In My Life 2 Chords
Still 2 Chords
The Stand 2 Chords
With Everything Chords
Alive Tabs
Deeply Inlove 1 Tabs
Higher Tabs
One Way 2 Tabs
Rise Tabs


Song lyrics



↑ Back to top | Tablatures and chords are parodies/interpretations of the original songs. You may use it for private study, scholarship, research or language learning purposes only
© 2014 AZChords.com Contact us | Privacy policy | DMCA | Add/correct tabs | Request tabs | Top 50 tabs