» » »

Hillsongs, Oceans Bass tabs (ver.1)

Artists:  A B C D E F G H I J K L M N O P Q R S T U V W X Y Z # 

Oceans Bass tabs (ver.1)

Hillsongs Tabs
 Rating:
4/5 (4 votes)
Oceans lessons Tabs too difficult? Try these video lessons and learn fast
                Heads up, I wrote this based off of the piano. So it's going to be wrong. I wrote
this for my sake of worship teams out there. Don't hate because I feel like
pulling out my hair.

Intro: 3 times before chours, then directly into the chours. No breaks.

G  ----------------------|
D  ----------------------|
A  ----------------------|
E  4~--56---2~---4~---7--|

Chours: 3 times

G  ---------------------------------------------------------------------|
D  ---------------------------------------------------------------------|
A  ----------------------0----------------------0----------0------------|
E  ---5(5)/9-8----7---8------5(5)/9-8----7---8------0-00~-----0-00~-----|

Instrumental: 2 times

G  -------------------------------------------|
D  -------------------------------------------|
A  ------------5~---------10~-----------------|
E  ------00~~------55~~--------10(10)~~-------|

Verse: 5 times

G  ---------------------------------------|
D  ---------------------------------------|
A  ---------------------------------------|
E  55~------66~~---7-----88~/9~~----------|

Bridge: 6 times

G  ----------------------------------------------------------------------|
D  ----------------------------------------------------------------------|
A  ------0~~-------------0~~------------------0~~----------------0~~-----|
E  7~~--------3~~------------------5~~-----------------1~~---------------|
            
Submit corrections

comments powered by Disqus
↑ Back to top | Hillsongs Bass for Oceans. Lyrics for acoustic guitar and electric guitar. Tablatures and chords are parodies/interpretations of the original songs. You may use it for private study, scholarship, research or language learning purposes only