» » »

Hillsongs, My Redeemer Lives Bass tabs (ver.1)

Artists:  A B C D E F G H I J K L M N O P Q R S T U V W X Y Z # 

My Redeemer Lives Bass tabs (ver.1)

Hillsongs Tabs
 Rating:
4/5 (4 votes)
My Redeemer Lives lessons Tabs too difficult? Try these video lessons and learn fast
                My Redeemer Lives


Verse 1: (I know he…)
G-----------------------------|
D-----------------------------|
A------2-2----0-0-04457-------|
E-0-0-4-4-4-------------------|

[Pre-chorus]: (I’ll raise the banner…)
G-----------------------------|
D-----------------------------|
A-22222…000000…22222…---------|
E-----------------------------|

[Chorus]: (My Redeemer…)
G------------------------------|
D------------------------------|
A-----------------0-0-04-4-5-7-|
E-0-0-44-5-4-5-7---------------|     Cont

G------------------------------|
D------------------------------|
A-4-4-24242-22-66-77-99--------|
E------------------------------|

[Applies to all (I believe…) after 1st one]
G-------------------------------|
D-------------------------------|
A---7-4542----0-14.11.12.11.9.4-|
E-0------4----—-----------------|

[Last Repeating Chorus’s]
G------------------------------|
D------------------------------|
A-7766552200-------44424242----|
E-----------442200-------------|     Cont

[Ending]
G-----------------------------|
D-----------------------------|
A-4442444-77664422------------|
E-----------------00----------|

[Bridge]:
G------------------------------------|
D------------------------------------|
A-5-555-555-555-5-4-444-444-444-4----|
E------------------------------------|     Cont

G-----------------------------------------|
D-----------------------------------------|
A--22-2-2-----------2-2-------------------|
E-0---------2-2-2-04----4-2—---00(H)797---|
            
Submit corrections

comments powered by Disqus
↑ Back to top | Hillsongs Bass for My Redeemer Lives. Lyrics for acoustic guitar and electric guitar. Tablatures and chords are parodies/interpretations of the original songs. You may use it for private study, scholarship, research or language learning purposes only