» » »

Hillsongs, Light Will Shine Bass tabs (ver.1)

Artists:  A B C D E F G H I J K L M N O P Q R S T U V W X Y Z # 

Light Will Shine Bass tabs (ver.1)

Hillsongs Tabs
 Rating:
4/5 (4 votes)
Light Will Shine lessons Tabs too difficult? Try these video lessons and learn fast
                
Tuning: Standard (EADG)


Intro (x2):

G|------6------------2-------------------------------------------------------|
D|7-7-7---7---4--------4-4-4-4-------4-----------4---------------------------|
A|-----------------------------5-5-5---5---5-------5-5-5-5-------------------|
E|---------------------------------------------------------------------------|


Verse 1 part 1 (no bass)

Verse 1 part 2 (x2):

G|---------------------------------------------------------------------------|
D|---------------------------------------------------------------------------|
A|0-0-0-0-0---9------9-9-9-9-9\5-5-5-5-5---5------5-5-5-5-5------------------|
E|---------------------------------------------------------------------------|

*Pre-chorus (x2) (version 1):

G|---------------------------------------------------------------------------|
D|---------------------------------------------------------------------------|
A|--------------9---9---9---9\5---5---5---5---5---5---5---5------------------|
E|7---7---7---7--------------------------------------------------------------|

*Pre-chorus (x2) (version 2):

G|---------------------------------------------------------------------------|
D|---------------------------------------------------------------------------|
A|--------------9---9---9---9------------------------------------------------|
E|7---7---7---7---------------10---10---10---10---10---10---10---10----------|


Chorus 1 :

G|---------------------------------------------------------------------------|
D|---------------------------------------------------------------------------|
A|0-0-0-0-0-0-0-0-0-0-0-0-0-0-0-0-7-7-7-7-7-7-7-7-7-7-7-7-7-7-7-7------------|
E|---------------------------------------------------------------------------|

G|---------------------------------------------------------------------------|
D|---------------------------------------------------------------------------|
A|9-9-9-9-9-9-9-9-9-9-9-9-9-9-9-9\5-5-5-5-5-5-5-5-5-5-5-5-5-5-5-5------------|
E|---------------------------------------------------------------------------|


Verse 2 :

G|---------------------------------------------------------------------------|
D|---------------------------------------------------------------------------|
A|0-0-0-0-0---9------9-9-9-9-9\5-5-5-5-5---5------5-5-5-5-5------------------|
E|---------------------------------------------------------------------------|

Pre-chorus(x2) :

G|---------------------------------------------------------------------------|
D|---------------------------------------------------------------------------|
A|--------------9---9---9---9\5---5---5---5---5---5---5---5------------------|
E|7---7---7---7--------------------------------------------------------------|

Chorus 2 :


G|---------------------------------------------------------------------------|
D|---------------------------------------------------------------------------|
A|---------------------------------------------------------------------------|
E|5-5-5-5-5-5-5-5-5-5-5-5-5-5-5-5-0-0-0-0-0-0-0-0-0-0-0-0-0-0-0-0------------|

G|---------------------------------------------------------------------------|
D|---------------------------------------------------------------------------|
A|--------------------------------5-5-5-5-5-5-5-5-5-5-5-5-5-5-5-5------------|
E|2-2-2-2-2-2-2-2-2-2-2-2-2-2-2-2--------------------------------------------|

G|---------------------------------------------------------------------------|
D|---------------------------------------------------------------------------|
A|---------------------------------------------------------------------------|
E|5-5-5-5-5-5-5-5-5-5-5-5-5-5-5-5-0-0-0-0-0-0-0-0-0-0-0-0-0-0-0-0------------|

G|---------------------------------------------------------------------------|
D|---------------------------------------------------------------------------|
A|--------------------------------5-5-5-5-5-5-5-5-5-5-5-5-5-5-5-5------------|
E|2-2-2-2-2-2-2-2-2-2-2-2-2-2-2-2--------------------------------------------|

G|---------------------------------------------------------------------------|
D|---------------------------------------------------------------------------|
A|/7-7-7-7-7-7-7-7/9-9-9-9-9-9-9-9\5-5-5-5-5-5-5-5-5-5-5-5-5-5-5-5-----------|
E|---------------------------------------------------------------------------|

G|---------------------------------------------------------------------------|
D|---------------------------------------------------------------------------|
A|/7-7-7-7-7-7-7-7/9-9-9-9-9-9-9-9\5-5-5-5-5-5-5-5-5-5-5-5-5-5-5-5-----------|
E|---------------------------------------------------------------------------|


Mini-break


Chorus 2




*In this part, two choices are possible. In the video, I play the version 1. You can do 
as you want but I prefer to play this version because it sounds better.


| /  slide up
| \  slide down
===============================================================================
            
Submit corrections

comments powered by Disqus
↑ Back to top | Hillsongs Bass for Light Will Shine. Lyrics for acoustic guitar and electric guitar. Tablatures and chords are parodies/interpretations of the original songs. You may use it for private study, scholarship, research or language learning purposes only