» » »

Hillsongs, King Of All Days Tabs (ver.1)

Artists:  A B C D E F G H I J K L M N O P Q R S T U V W X Y Z # 

King Of All Days Tabs (ver.1)

Hillsongs Tabs
 Rating:
4/5 (4 votes)
King Of All Days lessons Tabs too difficult? Try these video lessons and learn fast
1
                Intro & Verse: Delay as usual
-----------------------------|
-----------------------------|
---1-1-1-1-1-1-1-------------|
--2-2-2-2-2-2-2--4-4-4---6-6-|
----------------2-2-2-2s4-4--|
-----------------------------|

-----------------------------|
-----------------------------|
-----------------------------|
--6-6-6-6-6-2-2-2------------|
-4-4-4-4-4-0-0-0-------------|
-----------------------------|

or you can do this part like this:

-----------------------------|
-----------------------------|
-----------------------------|
--6-6-6-6-6-6-6--4-4-4---6-6-|
-7-7-7-7-7-7-7--2-2-2-2s4-4--|
-----------------------------|

-----------------------------|
-----------------------------|
-----------------------------|
--6-6-6-6-6-2-2-2------------|
-4-4-4-4-4-0-0-0-------------|
-----------------------------|
I used the first one in the video as its more comfortable for me.

E B C#m A


Pre-Chorus: Chord inversion
------------------------------------|
---5---5---5---5---5---5---4---5-4--|
--6-6-6-6-6-6-6-6-4-4-4-4-4-4-4-----|
-6---6---7---7---6---6---6---6------|
------------------------------------|
------------------------------------|

------------------------------------|
---5---5---5---5---5---5---5p4--5p4-|
--6-6-6-6-6-6-6-6-4-4-4-4-4----4----|
-6---6---7---7---6---6---4----4-----|
------------------------------------|
------------------------------------|

C#m A E G#m
C#m A E B

Chorus: Strum (with distortion part)
---------------------------|
---------------------------|
--9-8-9--13--16------------|
---------------------------| 3x
--7-6-7--11--14------------|
---------------------------|

---------------------------|
---------------------------|
--9-8-9--16--14------------|
---------------------------|
--7-6-7--14--12------------|
---------------------------|

---------------------------|
---------------------------|
--9-8-9--13--16------------|
---------------------------| 3x
--7-6-7--11--14------------|
---------------------------|

---------------------------|
---------------------------|
--9-8-9--16--14-13---------|
---------------------------|
--7-6-7--14--12-11---------|
---------------------------|

------10-11----------------|
-----------9---------------|
--9s10---------------------|
---------------------------|
---------------------------|
---------------------------|

Pre-Bridge: back to clean sound
---------------------------|
--7-5-4---4-5--------------|
-------6-----4-2-1---------|
---------------------------|
---------------------------|
---------------------------|

Bridge:
------------9--9-------------|
-----4----------12-9-10--10--|
---------7s9--9--------------|
--2s4------------------------|
-----------------------------|
-----------------------------|

----------0----------------|
--5--4-5-4---5-------------|
-----------------4---------|
---------------------------|
---------------------------|
---------------------------|

Followed by: Build up
---------------------------|
--6-----4------------------|
--4-----4----6----9--------|
--2-----4----6----9--------|
-------------4----7--------|
---------------------------|

E B C#m E
            
Submit corrections

comments powered by Disqus
↑ Back to top | Hillsongs Tabs for King Of All Days. Lyrics for acoustic guitar and electric guitar. 1 Tablatures and chords are parodies/interpretations of the original songs. You may use it for private study, scholarship, research or language learning purposes only