» » »

Hillsongs, Kingdom Come Bass tabs (ver.1)

Artists:  A B C D E F G H I J K L M N O P Q R S T U V W X Y Z # 

Kingdom Come Bass tabs (ver.1)

Hillsongs Tabs
 Rating:
4/5 (4 votes)
Kingdom Come lessons Tabs too difficult? Try these video lessons and learn fast
                -------------------------------------------------------------------------------
			     Kingdom Come
-------------------------------------------------------------------------------


Tuning:standard

intro x2/verse x2
G|---------------------------------------------------------------------------|
D|---------------------------------------------------------------------------|
A|2222222222222222----------------0000000000000000---------------------------|
E|----------------3333333333333333----------------2222222233333333-----------|
bridge
G|---------------------------------------------------------------------------|
D|---------------------------------------------------------------------------|
A|00000000000000-------------------------------------------------------------|
E|--------------33333333333333-----------------------------------------------|
chorus
G|---------------------------------------------------------------------------|
D|0~-------------------------------------------------------------------------|
A|--------------------------------2~-----------------------------------------|
E|----------------3~------------------------------3~-------------------------|

G|---------------------------------------------------------------------------|
D|000000000000---------------------------------------------------------------|
A|-------------------------222222222222--------------------------------------|
E|------------3333333333333------------333333333333--------------------------|
verse 2 x4
G|---------------------------------------------------------------------------|
D|---------------------------------------------------------------------------|
A|2222222222222222----------------0000000000000000---------------------------|
E|----------------3333333333333333----------------222222233333333------------|
bridge
G|---------------------------------------------------------------------------|
D|---------------------------------------------------------------------------|
A|00000000000000-------------------------------------------------------------|
E|--------------33333333333333-----------------------------------------------|
chorus x2
G|---------------------------------------------------------------------------|
D|000000000000---------------------------------------------------------------|
A|-------------------------222222222222--------------------------------------|
E|------------3333333333333------------333333333333--------------------------|
interlude
G|---------------------------------------------------------------------------|
D|---------------------------------------------------------------------------|
A|2~-----------------------------0~------------------------------------------|
E|--------------3~--------------------------------3~-------------------------|
x2
G|---------------------------------------------------------------------------|
D|---------------------------------------------------------------------------|
A|2222222222222------------000000000000--------------------------------------|
E|-------------333333333333------------333333333333--------------------------|
bridge x2
G|---------------------------------------------------------------------------|
D|---------------------------------------------------------------------------|
A|00000000000000-------------------------------------------------------------|
E|--------------33333333333333-----------------------------------------------|
chorus
G|---------------------------------------------------------------------------|
D|000000000000---------------------------------------------------------------|
A|-------------------------222222222222--------------------------------------|
E|------------3333333333333------------333333333333--------------------------|

G|---------------------------------------------------------------------------|
D|000000000000---------------------------------------------------------------|
A|----------------------------979---979--------------------------------------|
E|------------3333333333333-7-----7-----333333333333-------------------------|

G|---------------------------------------------------------------------------|
D|000000000000---------------------------------------------------------------|
A|-------------------------222222222222--------------------------------------|
E|------------3333333333333------------333333333333--------------------------|

G|---------------------------------------------------------------------------|
D|000000000000---------------------------------------------------------------|
A|----------------------------979---979--------------------------------------|
E|------------3333333333333-7-----7-----333333333333-------------------------|

i think this is an awsome song let me know if its good enough for you but this is how 
band does it so have fun

| /  slide up
| \  slide down
| h  hammer-on
| p  pull-off
| ~  vibrato
| +  harmonic
| x  Mute note
==================================
            
Submit corrections

comments powered by Disqus
↑ Back to top | Hillsongs Bass for Kingdom Come. Lyrics for acoustic guitar and electric guitar. Tablatures and chords are parodies/interpretations of the original songs. You may use it for private study, scholarship, research or language learning purposes only