» » »

Hillsongs, In Your Freedom Tabs (ver.1)

Artists:  A B C D E F G H I J K L M N O P Q R S T U V W X Y Z # 

In Your Freedom Tabs (ver.1)

Hillsongs Tabs
Rating:
0/5 (0 votes)
In Your Freedom lessons Tabs too difficult? Try these video lessons and learn fast
                
Key: D

Intro:(Stum once)
   G          A           Bm           D/F# 
e|-x----------x-----------x------------x---|
B|-x----------x-----------x------------x---|
G|-4----------6-----------7------------2---|
D|-0----------0-----------0------------0---|
A|-0----------0-----------0------------0---|
E|-3----------5-----------7------------2---|

   G          A           Bm .............           
e|-x----------x-----------x---------------|
B|-x----------x-----------x---------------|
G|-4----------6-----------7---------------|
D|-0----------0-----------0---------------|
A|-0----------0-----------0---------------|
E|-3----------5-----------7---------------|

Verse 1:(Play the chords just like in Intro. 
         Strum also once.)
G            A
I search for You
       Bm      D/F#
God of strength
G        A
I bow to You
            Bm
In my brokenness
       G                A              Bm   D/F#
And no other king could have so humbly come
   G                A       Bm    A
To save my soul and heal my heart

Pre-Chorus:(Lightly strum)
   G          A           Bm           D/F#        D
e|-x----------x-----------x------------x-----------x--|
B|-x----------x-----------x------------x-----------x--|
G|-4----------6-----------7------------2-----------11-|
D|-0----------0-----------0------------0-----------0--|
A|-0----------0-----------0------------0-----------0--|
E|-3----------5-----------7------------2-----------10-|
Bm      A
I have nothing more
D            A
Than all You offer me
Bm       A
There is nothing else
G         A        D
That's of worth to me


Chorus:(Strum)
    D   A   Bm   G
e|--2---0---2----3---|
B|--3---2---3----3---|
G|--2---2---4----0---|
D|--0---2---4----0---|
A|--x---0---2----2---|
E|--x---x---x----3---|
D     A        Bm
And I love You Lord
    G      D
You rescue me
        A          Bm
You are all that I want
       G     D
You're all I need

Intro 2:(Strum)
   G          A           Bm           D/F# 
e|-x----------x-----------x------------x---|
B|-x----------x-----------x------------x---|
G|-4----------6-----------7------------2---|
D|-0----------0-----------0------------0---|
A|-0----------0-----------0------------0---|
E|-3----------5-----------7------------2---|


Verse 2:
G         A
I pray to You
       Bm    D/F#
God of peace
G         A
I rest in You
           Bm    A
My cares released

Pre-Chorus:(Strum)
   G          A           Bm           D/F#        D
e|-x----------x-----------x------------x-----------x--|
B|-x----------x-----------x------------x-----------x--|
G|-4----------6-----------7------------2-----------11-|
D|-0----------0-----------0------------0-----------0--|
A|-0----------0-----------0------------0-----------0--|
E|-3----------5-----------7------------2-----------10-|
Bm      A
I have nothing more
D            A
Than all You offer me
Bm       A
There is nothing else
G         A        D
That's of worth to me

Chorus:(Strum)
    D   A   Bm   G
e|--2---0---2----3---|
B|--3---2---3----3---|
G|--2---2---4----0---|
D|--0---2---4----0---|
A|--x---0---2----2---|
E|--x---x---x----3---|
D     A        Bm
And I love You Lord
    G      D
You rescue me
        A          Bm
You are all that I want
       G     D
You're all I need


Instrumental:
Guitar 1:(Strum)2x
    D/F# A   Bm   G
e|--2----0---2----3---|
B|--3----2---3----3---|
G|--2----2---4----0---|
D|--0----2---4----0---|
A|--0----0---2----2---|
E|--2----x---x----3---|
Guitar 2:
    D/F#                  A
e|-------------------------------------------|
B|-------------------------------------------|
G|---9/11-11-9-11-11-9-11--------------------|
D|------------------------9/11-11-9-11-12-14-|
A|-------------------------------------------|
E|-------------------------------------------|
   Bm                   G
e|----------------------------------9p-|
B|------------------------11p----------|
G|-9/11-11-9-11-12-11-11p-----11p------|
D|-------------------------------------|
A|-------------------------------------|
E|-------------------------------------|

    D/F#                    A
e|------------------------------------------------|
B|------------------------------------------------|
G|--9/11-11-9-11-11-9-11--------------------------|
D|--------------------------9/11-11-9-11-12-11----|
A|---------------------------------------------12-|
E|------------------------------------------------|

e|--9~-10~--12~-14~-15~--|
B|-----------------------|
G|-----------------------|
D|-----------------------|
A|-----------------------|
E|-----------------------|


Bridge:(Strum lightly at first round)3x
    D/F# A   Bm   G
e|--2----0---2----3---|
B|--3----2---3----3---|
G|--2----2---4----0---|
D|--0----2---4----0---|
A|--0----0---2----2---|
E|--2----x---x----3---|
G                      D/F#
In Your freedom I will live
                       Bm
In Your freedom I will live
         D/F#    G
I offer devotion
         D/F#    G
I offer devotion

Chorus:(Strum)2x
    D   A   Bm   G
e|--2---0---2----3---|
B|--3---2---3----3---|
G|--2---2---4----0---|
D|--0---2---4----0---|
A|--x---0---2----2---|
E|--x---x---x----3---|
D     A        Bm
And I love You Lord
    G      D
You rescue me
        A          Bm
You are all that I want
       G     D
You're all I need
            

comments powered by Disqus
↑ Back to top | Hillsongs Tabs for In Your Freedom. Lyrics for acoustic guitar and electric guitar. Tablatures and chords are parodies/interpretations of the original songs. You may use it for private study, scholarship, research or language learning purposes only