» » »

Hillsongs, In Freedom Bass tabs (ver.1)

Artists:  A B C D E F G H I J K L M N O P Q R S T U V W X Y Z # 

In Freedom Bass tabs (ver.1)

Hillsongs Tabs
 Rating:
4/5 (4 votes)
In Freedom lessons Tabs too difficult? Try these video lessons and learn fast
1
                Title       : In Freedom
Artist      : Hillsongs
Album	    : By Your Side




Intro:

         E		        A
G|----------------------------------|
D|----------------------------------|
A|--5--6--7-----5--6--7------5-5----| 4x
E|-------------------------------5-5|

Verse:
    E									
G|--------------------------------------------|   
D|--------------------------------------------|    
A|-------7--5-5----5--7--------7--5-5---5--7--|  
E|--0-0---------7---------0-0---------7-------|   
Rising Generation set apart for liberty, 
					A
G|-------------------------------------------------|  
D|-------------------------------------------------|  
A|-----7--5-5----5--7------------------------------|
E|-0-0--------7----------0-0-2-2-3--3-5--5-0-5--5-5| 

A royal loving people chosen to be mighty...

 
G|-----------------------|------------------------------|
D|-----------------------|------------------------------|
A|----4----4---4--5--7---|--5--6--7---5--6--7----5-5----|
E|------5----------------|---------------------------5-5|
mighty in the land..

    F#       G#		A		  B
G|---------------------------------------------|
D|---------------------------------------------|
A|---------------------------------------------|
E|--2--------4----------5--5--5--5-3-5---7-7-7-|

All across this nation, a cry is ringing out 
Chucrch of the king is breaking out...

Chorus:

	E			A
G|-----------------------|-----------------------|
D|-----------------------|-----------------------|
A|-----7--5-5---5--7-----|-----4---4--4--5--7----|2x
E|--0---------7----------|-5-5---5---------------|
    In Freedom......In Power........      
	C#	A	D		B	
G|---------------------------------------------------|
D|---------------------------------------------------|
A|--4---4-4-4------------5-5-5-5--------2-2-2-2------| repeat intro twice
E|--------------5-5-5-5------------------------------|
    In Healing......Salvation to the end of the earth

Outro: Do the Intro (wag ka ng mag comment Cyrill Gopez ok yan!)hehehe
            
Submit corrections

comments powered by Disqus
↑ Back to top | Hillsongs Bass for In Freedom. Lyrics for acoustic guitar and electric guitar. 1 Tablatures and chords are parodies/interpretations of the original songs. You may use it for private study, scholarship, research or language learning purposes only