>
 >
I Give My All

I Give My All Guitar Tabs

Hillsongs - I Give My All chords, tabs, tablatures, lyrics

Guitar lessons | Add/correct | Request | Top 50 tabs Artists:  A B C D E F G H I J K L M N O P Q R S T U V W X Y Z 0-9

I Give My All Guitar Tabs – Hillsongs

CD, Sheet music, Poster

Do you like I Give My All? Share with your friends now
ChordsTabsUkulele

*Standard Tuning

Intro
------------------------------------------------|
---9-10-10/12-12-12-----------------------------|
----------------------11p9-9-11^-9-9------------|
--------------------------9-9-------------------|
------------------------------------------------|
------------------------------------------------|

----------------12-14^-12-12h-14p12-11-------------|
----------12-14-----------------------14-12--------|
--->11-13-----------------------------------13-----|
-----------------------------------------------14--|
---------------------------------------------------|
---------------------------------------------------|

-------------------------|
-------------------------|
-------------------------|
---9-11-9----------------|
----------11-9-7---7-----|
-----------------9-------|


Verse
...grace
----------------------------|
---12/14-12-----------------|
---11/13-11-9------9h11-9---|
--------------9h11----------|
----------------------------|
----------------------------|

...soul
-------------------------|
-------------------------|
-------------9-11---9-9--|
--------9-10------9------|
---9h11------------------|
-------------------------|

Ref
---------- ---------- ---------------------|
------12^- ---------- -10-9-10-10/12-12-12-|
----9----- --------9- ---------------------|
---------- ---9h11--- ---------------------|
---------- ---------- ---------------------|
---------- ------ --- ---------------------|

Chorus
------------------------------------------------------------------|
-10-9---10-9---10-9---10-9--10-9----10-9---10-9---10-9---10/12-12-|
------9------9------9-----9-----9--------9------9------9----------|(2x)
------------------------------------------------------------------|
------------------------------------------------------------------|
------------------------------------------------------------------|

------------------------------------------------------|
---12-----12-----12-----12-----12--9-10-9-10/12-12----|
-9----8h9----8h9----8h9----8h9------------------------|
------------------------------------------------------|
------------------------------------------------------|
------------------------------------------------------|

adlib
-----------------------------------11h12p11--------|
-----9-9-10-9--------------9-10-12----------12-12--|
--------------11-9-11^-----------------------------|
-7/9-------------------9-9-------------------------|
---------------------------------------------------|
---------------------------------------------------|

----------------------------|
-10p9-----------------------|
------11p9----9-11^-11p9-11-|
-----------11---------------|
----------------------------|
----------------------------|

Verse
...free
---------------------------------|
---12/14-12-14\12-10-10/12-------|
---11/13-11-13\11-9--9/11--------|
---------------------------------|
---------------------------------|
---------------------------------|

...and use me
--------------------------------------|
--------------9h10p9----10-9----9-10--|
------------9--------11------11-------|
-------9-11---------------------------|
--9h11--------------------------------|
--------------------------------------|


Ref
---------- ----------------------- -------------------------9-11-12-|
--10-9---- -10p9------------------ ---------9-10----9-10-12---------|
---------- ------11p9----9-11----- ----9-11------11-----------------|
---------- -----------11------9-9- -11------------------------------|
---------- ----------------------- ---------------------------------|
---------- ----------------------- ---------------------------------|

Chorus
------------------------------------------------------------------|
-10-9---10-9---10-9---10-9--10-9----10-9---10-9---10-9---10/12-12-|
------9------9------9-----9-----9--------9------9------9----------|(2x)
------------------------------------------------------------------|
------------------------------------------------------------------|
------------------------------------------------------------------|

------------------------------------------------------|
---12-----12-----12-----12-----12---------------------|
-9----8h9----8h9----8h9----8h9----9-8-----------------|
--------------------------------------9-9/10----------|
------------------------------------------------------|
------------------------------------------------------|

Pre-chorus
-----------------------------------------------------------------|
-------12-----12-----12-----12-------12--------------------------|
----8h9----8h9----8h9----8h9------8h9----------------------------|
-----------------------------------------------------------------|
-----------------------------------------------------------------|
-----------------------------------------------------------------|

Chorus
------------------------------------------------------------------|
-10-9---10-9---10-9---10-9--10-9----10-9---10-9---10-9---10/12-12-|
------9------9------9-----9-----9--------9------9------9----------|(2x)
------------------------------------------------------------------|
------------------------------------------------------------------|
------------------------------------------------------------------|

-----------------------------------------------------------7h9p7-|
---12-----12-----12-----12-----12-------12-----12-----12---------|
-9----8h9----8h9----8h9----8h9------8h9----8h9----8h9----9-------|
-----------------------------------------------------------------|
-----------------------------------------------------------------|
-----------------------------------------------------------------|

----------------9-12-12/14-12----12-9----------------------------|
-----------9-12---------------14------12-9-----------------------|
------9-11---------------------------------11-9------9^---9-9----|
-9-11-------------------------------------------11-9---11--------|
-----------------------------------------------------------------|
-----------------------------------------------------------------|

----------12-14^-14-12----12-14^-14-12-------------|
----12-14--------------14--------------14-12/14----|
->13-----------------------------------------------|
---------------------------------------------------|
---------------------------------------------------|
---------------------------------------------------|

-9h12------------------------|
------9h12-------------------|
-----------9h11p9----9-------|
------------------11---------|
-----------------------------|
-----------------------------|

...to you
---------------------------12p11----11-12^-11---|
---12^-10p9-10-------------------12-------------|
-9-------------11p9-11^-11----------------------|
------------------------------------------------|
------------------------------------------------|
------------------------------------------------|

----------------------------------------------------|
----------------------------------------------------|
---9-11^p9----9-11^p9---------9---------------------|
-11---------11---------11-9-11--11--->11-9---9------|
------------------------------------------11---9/11-|
----------------------------------------------------|


frendsen 19102010-01





Comments


Popular Hillsongs tabs & chords
Adonai 1 Chords
As The Deer 4 Chords
Isaiah 43 Chords
We Are The Reason Chords
Before The Throne Of God Above Tabs
Hosanna 2 Tabs
With All I Am Tabs
With Everything Tabs
All About You Ukulele
Devotion Ukulele


Song lyrics



↑ Back to top | Tablatures and chords are parodies/interpretations of the original songs. You may use it for private study, scholarship, research or language learning purposes only
© 2014 AZChords.com Contact us | Privacy policy | DMCA | Add/correct tabs | Request tabs | Top 50 tabs