>
 >
Hosanna 2

Hosanna 2 Guitar Tabs

Hillsongs - Hosanna 2 chords, tabs, tablatures, lyrics

Guitar lessons | Add/correct | Request | Top 50 tabs Artists:  A B C D E F G H I J K L M N O P Q R S T U V W X Y Z 0-9

Hosanna 2 Guitar Tabs – Hillsongs

CD, Sheet music, Poster

Do you like Hosanna 2? Share with your friends now
ChordsChords v2TabsTabs v2Tabs v3Tabs v4Ukulele
Hosanna(acoustic)


favorite ng mga young people samin... 


HOSANNA

     C#M   E   F#m  G#m   A    B  
e|----4---------2----4----2---------|
B|----5---------2----4----2----4----|
G|----6----1----2----4----2----4----|
D|----6----2----4----6----2----4----|
A|----4----2----4----6----0----2----|
E|---------0----2----4--------------|



INTRO:  C#m	   E	   F#m	        G#m

VERSE 1:
E
I see the king of glory
C#m
Coming down the clouds with fire
                F#m
The whole earth shakes
                G#m	    C#m
The whole earth shakes

E
I see his love and mercy
C#m
Washing over all our sin
           F#m
The people sing
           B
The people sing

CHORUS:
   E/G#      A       B      C#m      A      C#m      B       B
e|-------0-------0-------0-------0-------0-------0-------0-------|
B|-----0---0---0---0---0---0---0---0---0---0---0---0---0---0-----|
G|---4-------6-------8-------9-------6-------9-------8-------8---|
D|---------------------------------------------------------------|
A|---------------------------------------------------------------|
E|---4-------5-------7-------9-------5-------9-------7-------7---|


   E/G#      A       B      C#m      A       B       C#m
e|-------0-------0-------0-------0-------0-------0-------0-------|
B|-----0---0---0---0---0---0---0---0---0---0---0---0---0---0-----|
G|---4-------6-------8-------9-------6-------8-------9-----------|
D|---------------------------------------------------------------|
A|---------------------------------------------------------------|
E|---4-------5-------7-------9-------5-------7-------9-----------|


 E/G# A
Hosanna 
 B  C#m
Hosanna
  A	       C#m   B
Hosanna in the highest

E/G# A
Hosanna 
B  C#m
Hosanna
  A	       B     C#m
Hosanna in the highest


VERSE 2:
E
I see a generation 
C#m
Rising up to take their place
	      F#m
With selfless faith 
	      G#m
With selfless faith

E
I see a near revival
C#m
Staring as we pray and seek
	     F#m
We’re on our knees
	     B
We’re on our knees

CHORUS:

   E/G#      A       B      C#m      A      C#m      B       B
e|-------0-------0-------0-------0-------0-------0-------0-------|
B|-----0---0---0---0---0---0---0---0---0---0---0---0---0---0-----|
G|---4-------6-------8-------9-------6-------9-------8-------8---|
D|---------------------------------------------------------------|
A|---------------------------------------------------------------|
E|---4-------5-------7-------9-------5-------9-------7-------7---|


   E/G#      A       B      C#m      A       B       C#m
e|-------0-------0-------0-------0-------0-------0-------0-------|
B|-----0---0---0---0---0---0---0---0---0---0---0---0---0---0-----|
G|---4-------6-------8-------9-------6-------8-------9-----------|
D|---------------------------------------------------------------|
A|---------------------------------------------------------------|
E|---4-------5-------7-------9-------5-------7-------9-----------|

E/G# A
Hosanna 
B  C#m
Hosanna
  A	       C#m   B
Hosanna in the highest

E/G# A
Hosanna 
B  C#m
Hosanna
  A	       B     
Hosanna in the highest

Instumental:
C#m    E     F#m     G#m

C#m    E     F#m     G#m


BRIDGE:
A			  B
Heal my heart and make it clean
E			     C#m
Open my eyes to the things I see
A			 B		 C#m
Show me how to love like you, have loved me
A				B
Break my heart for what breaks yours
E			 C#m
Everything I am for your kingdom cause
A		        B	   E
As I walk from earth in to eternity


CHORUS/OUTRO:
 
   E/G#      A       B      C#m      A      C#m      B       B
e|-------0-------0-------0-------0-------0-------0-------0-------|
B|-----0---0---0---0---0---0---0---0---0---0---0---0---0---0-----|
G|---4-------6-------8-------9-------6-------9-------8-------8---|
D|---------------------------------------------------------------|
A|---------------------------------------------------------------|
E|---4-------5-------7-------9-------5-------9-------7-------7---|


   E/G#      A       B      C#m      A       B       C#m
e|-------0-------0-------0-------0-------0-------0-------0-------|
B|-----0---0---0---0---0---0---0---0---0---0---0---0---0---0-----|
G|---4-------6-------8-------9-------6-------8-------9-----------|
D|---------------------------------------------------------------|
A|---------------------------------------------------------------|
E|---4-------5-------7-------9-------5-------7-------9-----------|

E/G# A
Hosanna 
 B  C#m
Hosanna
  A	       C#m   B
Hosanna in the highest

E/G# A
Hosanna 
B  C#m
Hosanna
  A	       B     E
Hosanna in the highest

E/G# A
Hosanna 
B  C#m
Hosanna
  A	       C#m   B
Hosanna in the highest

E/G# A
Hosanna 
  	B  C#m
Hosanna
  A	       B     C#m
Hosanna in the highest
  A	       B     E
Hosanna in the highest





Comments


Popular Hillsongs tabs & chords
Altar Chords
Came To My Rescue Chords
Let The Peace Of God Reign Chords
Most Holy Chords
Sing Your Love Chords
The Solid Rock Chords
The Time Has Come Chords
We Are The Reason Chords
A Reprise Tabs
Break Free Intro Tabs


Song lyrics



↑ Back to top | Tablatures and chords are parodies/interpretations of the original songs. You may use it for private study, scholarship, research or language learning purposes only
© 2014 AZChords.com Contact us | Privacy policy | DMCA | Add/correct tabs | Request tabs | Top 50 tabs