>
 >
Hosanna

Hosanna Guitar Tabs

Hillsongs - Hosanna chords, tabs, tablatures, lyrics

Guitar lessons | Add/correct | Request | Top 50 tabs Artists:  A B C D E F G H I J K L M N O P Q R S T U V W X Y Z 0-9

Hosanna Guitar Tabs – Hillsongs

CD, Sheet music, Poster

Do you like Hosanna? Share with your friends now
ChordsChords v2TabsTabs v2Tabs v3Tabs v4Ukulele


Intro:

e:|---------------------------------------4-------|
B:|--------4~---------7~--------9~------------4~--|
G:|-----------------------------------4-----------|
D:|----2----------6---------7-----------6---6-----|
A:|--4---4------7---7-----9---9-------------------|
E:|---------------------------------4-------------|

Intro 2: C#m-E-F#m-G#m

e:|--4~--------11~---------------12~---------------|
B:|--5~-------------------9~--10--------------12~--|
G:|--6~---9/11-------9h11------------------11------|
D:|--6~------------9-----------------11/13---------|
A:|--4~--------------------------------------------|
E:|------------------------------------------------|

e:|--9~--------11~----------------12~---14~--|
B:|--9~--------------------9~--10-------12~--|
G:|--9~--11/13--------9h11--------------13~--|
D:|-----------------9------------------------|
A:|------------------------------------------|
E:|------------------------------------------|

Verse 1:
E
I see the king of glory
C#m
Coming down the clouds with fire
                F#m
The whole earth shakes
                B	   
The whole earth shakes

Interlude: C#m

e:|---9~---------------|
B:|---9~----12----9~---|
G:|---9~-------11------|
D:|--------------------|
A:|--------------------|
E:|--------------------|

E
I see his love and mercy
C#m
Washing over all our sin
           F#m
The people sing
           B
The people sing

Chorus:

 E/G# A
Hosanna 
 B  C#m
  A	       C#m   B
Hosanna in the highest

E/G# A
Hosanna 
B  C#m
  A	       B     C#m
Hosanna in the highest

(along with Chorus)

e:|---------------12~-----11~-------------|
B:|---------9~-10------12------------9~---|
G:|-----------------------------9h11------|
D:|-------9-------------------------------|
A:|--9/11---------------------------------|
E:|---------------------------------------|

e:|-----12~---7~----11~-9~-------|
B:|--10-----9--------------12~---|
G:|--------------11--------------|
D:|------------------------------|
A:|------------------------------|
E:|------------------------------|

e:|---------------12~-----11~-------------|
B:|---------9~-10------12------------9~---|
G:|-----------------------------9h11------|
D:|-------9-------------------------------|
A:|--9/11---------------------------------|
E:|---------------------------------------|

e:|-----12~-----|
B:|--10-----12--|
G:|-------------|
D:|-------------|
A:|-------------|
E:|-------------|

Interlude: C#m
(Fill-in)
e:|-----------|
B:|--7--9-----|
G:|--8--9--9--|
D:|--------9--|
A:|-----------|
E:|-----------|

Verse 2:

E
I see a generation 
C#m
Rising up to take their place
	      F#m
With selfless faith 
	      B
With selfless faith

E
I see a near revival
C#m
Staring as we pray and seek
	     F#m
We’re on our knees
	     B
We’re on our knees

[Repeat Chorus]

Solo: C#m-E-F#m-G#m

e:|--9~--------11~--------12~-------14~--|
B:|--9~----------------------------------|
G:|--9~---9/11------13/14-----14/16------|
D:|--------------------------------------|
A:|--------------------------------------|
E:|--------------------------------------|

e:|--14p0-0-16p0-0-11p0-0-12p0-0-7p0-9p0---|
B:|----------------------------------------|
G:|----------------------------------------|
D:|----------------------------------------|
A:|----------------------------------------|
E:|----------------------------------------|

e:|--0-14p0-0-16p0-0-11p0-0-12p0-0-7p0-----|
B:|------------------------------------9---|
G:|----------------------------------------|
D:|----------------------------------------|
A:|----------------------------------------|
E:|----------------------------------------|

e:|--9p0-0-9h11h12p0-0-0-12/14-14-14-14~-/16-16-16-16~--|
B:|-----------------------------------------------------|
G:|-----------------------------------------------------|
D:|-----------------------------------------------------|
A:|-----------------------------------------------------|
E:|-----------------------------------------------------|

Bridge:

A			  B
Heal my heart and make it clean
E		       C#m
Open up my eyes to the things I see
A			 B		 C#m
Show me how to love like you, have loved me

Fill-in:
e:|--------------------------------------------------------|
B:|--------------------------------------------------------|
G:|--4/6-6-6-6/8-8-8/9-9-9-9/11-11-11-11/13-13-13-13~~~~---|
D:|--x-x-x-x-x-x-x-x-x-x-x-x-x--x--x--x--x--x--x--x--------|
A:|--2/4-4-4-4/6-6-6/7-7-7-7/9--9--9--9-/11-11-11-11~~~~---|
E:|--------------------------------------------------------|

A				B
Break my heart for what breaks yours
E			 C#m
Everything I am for your kingdom cause
A		        B	   A
As I walk from earth in to eternity

Interlude:

e:|------------------------------------------|
B:|--9---9---7---9-----9---9---7-----7/12\9--|
G:|----9---9---9---9-----9---9---(9)---------|
D:|------------------------------------------|
A:|------------------------------------------|
E:|------------------------------------------|

e:|-------------------------------7~---|
B:|--9---9---7---9----9---9---7~-------|
G:|----9---9---9---9----9---9----------|
D:|------------------------------------|
A:|------------------------------------|
E:|------------------------------------|

[Repeat Chorus 2x]

[Repeat last line of Chorus until end]





Comments


Popular Hillsongs tabs & chords
Always Will Chords
At The Cross 3 Chords
Awesome In This Place Chords
I Will Run To You Chords
Narrow Road Chords
Still 4 Chords
Follow The Son 2 Tabs
From God Above Tabs
God Is Able 2 Tabs
What The World Will Never Take Tabs


Song lyrics



↑ Back to top | Tablatures and chords are parodies/interpretations of the original songs. You may use it for private study, scholarship, research or language learning purposes only
© 2014 AZChords.com Contact us | Privacy policy | DMCA | Add/correct tabs | Request tabs | Top 50 tabs