>
 >
Here To Eternity

Here To Eternity Guitar Tabs

Hillsongs - Here To Eternity chords, tabs, tablatures, lyrics

Guitar lessons | Add/correct | Request | Top 50 tabs Artists:  A B C D E F G H I J K L M N O P Q R S T U V W X Y Z 0-9

Here To Eternity Guitar Tabs – Hillsongs

CD, Sheet music, Poster

Do you like Here To Eternity? Share with your friends now
ChordsTabsUkulele
HERE TO ETERNITY
HILLSONGS MUSIC AUSTRALIA
It's not accurate just my own interpretation...
I made some guitar arrangement for keyboard...

INTRO:
Riff A
    G                                                    4X
|--10--10--10--10--10--10--8--8--7--7--7--7---7-----------------------|
|---8---8---8---8---8---8--8--8--8--8--8--8---10----------------------|
|---7---7---7---7---7---7--7--7--7--7--7--7---7-----------------------|
|---------------------------------------------------------------------|
|---------------------------------------------------------------------|
|---------------------------------------------------------------------|
VERSE:
GUITAR 1:
      G           Gsus        G             Gsus
|-----3-----------3-----------3-------------3-------------------------|
|-----3-----------3-----------3-------------3-------------------------|
|-----4-----------5-----------4-------------5-------------------------|
|-----5-----------5-----------5-------------5-------------------------|
|-----5-----------5-----------5-------------5-------------------------|
|-----3-----------3-----------3-------------3-------------------------|
    Your kingdom generation, declares Your majesty
                                             trumpet arranged for gtr
|---------------------------------------3---|------------------3------|
|---------------------------------------3---|------------------3------|
|------------5------7------5------7-----4---|--10---9---7------4------|
|------------5------7------5------7-----5---|---x---x---x------5------|
|------------3------5------3------5-----5---|---8---7---5------5------|
|---------------------------------------3---|------------------3------|
  Our       lives are resounding with Your praise.
GUITAR 2:
|------------------------------------------------|
|------------------------------------------------|
|----------------0------0------0------0----------|
|--------------2------4------2------4------------|
|------------3------5------3------5--------------|
|------------------------------------------------|
GUITAR 1:
      G           Gsus        G             Gsus
|-----3-----------3-----------3-------------3-------------------------|
|-----3-----------3-----------3-------------3-------------------------|
|-----4-----------5-----------4-------------5-------------------------|
|-----5-----------5-----------5-------------5-------------------------|
|-----5-----------5-----------5-------------5-------------------------|
|-----3-----------3-----------3-------------3-------------------------|
We see Your Spirit moving, We burn with Holy fire

|---------------------------------------3---|
|---------------------------------------3---|
|------------5------7------5------7-----4---|
|------------5------7------5------7-----5---|
|------------3------5------3------5-----5---|
|---------------------------------------3---|
Your Glory is seen through all the earth
GUITAR 2:
|------------------------------------------------|
|------------------------------------------------|
|----------------0------0------0------0----------|
|--------------2------4------2------4------------|
|------------3------5------3------5--------------|
|------------------------------------------------|

PRE-CHORUS:
  pm       pm          pm                pm         pm
|--------------------------------------------------------------3------------------------|
|-----------------------------------------------------------------5---------------------|
|-------------------------------------------------------------------5-------7-7-7-7-7-7-|
|-----------------------------------------------------------5---------------7-7-7-7-7-7-|
|--3--3--3--3--3--3--5--5--5--5--5--5--7--7--5--5--3--3--5------------3𦠫-5-5-5-5-5-5-|
|---------------------------------------------------------------------------------------|
You set eternity in my heart,          so I'll live for You........  for You
CHORUS:
    G                                     Em          C      B/G  Am7        D
|--3--3--3--3--3--3----3𦠫3--3--------0--0--0--0-------------------------2--2--2--2-|
|--3--3--3--3--3--3----3-3-3-3--3---------0--0--0--0-------------------------3--3--3--3-|
|--0--0--0--0--0--0----0-0-0-0-0---------0--0--0--0-------0------0-----0----2--2--2--2-|
|--0--0--0--0--0--0----0-0-0-0-0---------2--2--2--2-----2-----0------2------0--0--0--0-|
|--2--2--2--2--2--2----2-2-2-2-2---------2--2--2--2--3------2------0-------------------|
|--3--3--3--3--3--3----3-3-3-3--3---------0--0--0--0------------------------------------|
Hallelujah,halle.. honor & praise forever,we'll shout a victory cry from here to eternity

    G                                     Em          C      B/G    Am7      D
|--3--3--3--3--3--3----3𦠫3--3--------0--0--0--0-------------------------2--2--2--2-|
|--3--3--3--3--3--3----3-3-3-3--3---------0--0--0--0-------------------------3--3--3--3-|
|--0--0--0--0--0--0----0-0-0-0-0---------0--0--0--0-------0------0-----0----2--2--2--2-|
|--0--0--0--0--0--0----0-0-0-0-0---------2--2--2--2-----2-----0------2------0--0--0--0-|
|--2--2--2--2--2--2----2-2-2-2-2---------2--2--2--2--3------2------0-------------------|
|--3--3--3--3--3--3----3-3-3-3--3---------0--0--0--0------------------------------------|
Hallelujah,halle.. honor & praise forever,we'll take our place in history we'll shout 
awesome love from here to......

  F                      G (Guitar 2) Guitar 1 Riff A  2X
|--1--1--1--1--1--1------3--3--3--3--3--3--3------------|
|--1--1--1--1--1--1------3--3--3--3--3--3--3------------|
|--2--2--2--2--2--2------0--0--0--0--0--0--0------------|
|--3--3--3--3--3--3------0--0--0--0--0--0--0------------|
|--3--3--3--3--3--3------2--2--2--2--2--2--2------------|
|--1--1--1--1--1--1------3--3--3--3--3--3--3------------|
GUITAR 3...  trumpet arranged for gtr
|--13--12--10--8------------------------------|
|---x---x---x--x------------------------------|
|--10---9---7--5------------------------------|
|---------------------------------------------|
|---------------------------------------------|
|---------------------------------------------|
..eternity

Back to Verse:
Then Pre-Chorus:
Then Chorus...4x

END:
|----------------------3-----------|
|----------------------3-----------|
|--10-10-10-10-10-10---0-----------|
|---x--x--x--x--x--x---0-----------|
|---8--8--8--8--8--8---2-----------|
|----------------------3-----------|
SWITCHBLADE
Hi to my bandmates: Toto, Tata, Kenneth, Ian, Ryan, Totong and Sharon...





Comments


Popular Hillsongs tabs & chords
All The Heavens Chords
Everyday 4 Chords
Here I Am To Worship 4 Chords
I Keep Falling In Love Chords
I Will Run To You Chords
In The Mystery 1 Chords
Like Incense Chords
Mighty To Save 6 Chords
The Stand 1 Tabs
Greater Than All Ukulele


Song lyrics



↑ Back to top | Tablatures and chords are parodies/interpretations of the original songs. You may use it for private study, scholarship, research or language learning purposes only
© 2014 AZChords.com Contact us | Privacy policy | DMCA | Add/correct tabs | Request tabs | Top 50 tabs