>
 >
God Is Love

God Is Love Guitar Tabs

Hillsongs - God Is Love chords, tabs, tablatures, lyrics

Guitar lessons | Add/correct | Request | Top 50 tabs Artists:  A B C D E F G H I J K L M N O P Q R S T U V W X Y Z 0-9

God Is Love Guitar Tabs – Hillsongs

CD, Sheet music, Poster

Do you like God Is Love? Share with your friends now
Tabs
-------------------------------------------------------------------------------
                             God Is Love - Hillsong
-------------------------------------------------------------------------------

Tuning: Standart

Intro
E|-------------|
A|-------------|
D|-------------|
G|-4---4---4---|
b|--5---5------|
e|---6---6---6-|

Chorus

E|-----------------------------|
A|-----------------------------|
D|-----------------------------|
G|-09-09-09---09-09-09---09-09-|
b|-08-08-08---08-08-08---08-08-|
e|-07-07-10---07-07-10---07-10-|

E|---------------------------------|
A|---------------------------------|
D|---------------------------------|
G|---------------------------------|
b|-5-5---5-5---5---4-5---5-5---5---|
e|-----7-----7---7-----7-----7---7-|

2-nd guitar

E|----------------------------------------------------------------|
A|----------------------------------------------------------------|
D|----------------------------------------------------------------|
G|----------------------------------------------------------------|
b|-5-5-5-5-5-5-5-5-5-5-5-5-5-5-5-5-5-5-5-5-5-5-5-5-4-4-4-4-4-4-4-4|
e|----------------------------------------------------------------|

Bridge

E|-------------------------------------------------.....
A|-------------------------------------------------.....
D|-------------------------------------------------.....
G|-------------------------------------------------.....
b|-------------------------------------------------.....
e|-12-12-12-12-12-14-14-14-12-12-12-12-12-14-14-14-.....

.....-----------------------------------------|
.....-----------------------------------------|
.....-----------------------------------------|
.....-----------------------------------------|
.....-----------------------------------------|
.....-11-11-11-11-11-13-13-13-9-9-9-9-9-7-7-7-|

************************************

| /   slide up
| \   slide down
| h   hammer-on
| p   pull-off
| ~   vibrato
| +   harmonic
| x   Mute note
| b   Bend
| pb  Pre-bend
| br  Bend release
| pbr Pre-bend release
| brb Bend release bend

************************************





Comments


Popular Hillsongs tabs & chords
By Your Side Bass Tabs
Draw Me Close To You 1 Chords
Fire Fall Down Chords
Free To Dance 1 Chords
Love Like Fire 2 Chords
Saviour King 3 Chords
Our God Is Love Tabs
Consume Me Ukulele
Everyday 2 Ukulele
For Who You Are Ukulele


Song lyrics



↑ Back to top | Tablatures and chords are parodies/interpretations of the original songs. You may use it for private study, scholarship, research or language learning purposes only
© 2014 AZChords.com Contact us | Privacy policy | DMCA | Add/correct tabs | Request tabs | Top 50 tabs