» » »

From The Inside Out Tabs (ver.5)

Artists:  A B C D E F G H I J K L M N O P Q R S T U V W X Y Z # 

From The Inside Out Tabs (ver.5)

Hillsongs
Rating:
0/5 (0 votes)

Tabs too difficult? Try these video lessons and learn fast.
                Instrumental going from Chorus into Bridge:


Tabs
--------8--------8------------|
------8--------8--------8-----|
-9h10-----9h10-----9h10-------|(x2)
------------------------------|
------------------------------|
------------------------------|

-------------------------------|
-13-12-------------------------|
-------12-14-14--7-9-9-7-5-7-5-|
-------------------------------|
-------------------------------|
-------------------------------|

------------------------------|
-8-8s10-10s12-12-12s15-15-15--|
------------------------------|
------------------------------|
------------------------------|
------------------------------|

-----12-------12-------12-------12-------15-|
--------13-------13-------13-------13-------|
--14-------14-------14-------14-------14----| (x2)
--------------------------------------------|
--------------------------------------------|
--------------------------------------------|

--------------------------15-------15----17-|
-----12h13p12----12h13p12----12h13----13----|
-14-----------12----------------------------|
--------------------------------------------|
--------------------------------------------|
--------------------------------------------|
            
Tabs too difficult? Try these video lessons and learn fast.




comments powered by Disqus
↑ Back to top | Tablatures and chords are parodies/interpretations of the original songs. You may use it for private study, scholarship, research or language learning purposes only