» » »

Hillsongs, Freedom We Know Bass tabs (ver.1)

Artists:  A B C D E F G H I J K L M N O P Q R S T U V W X Y Z # 

Freedom We Know Bass tabs (ver.1)

Hillsongs Tabs
 Rating:
4/5 (4 votes)
Freedom We Know lessons Tabs too difficult? Try these video lessons and learn fast
                Freedom We Know
Hillsong
Mighty to Save Album

Verse
G |--------------------------------------------------------------------------------------------|
D |--------------------------------------------------------------------------------------------|
A |----------10--8-8--8-7-7-----10--8-8--8-7-7-----10--8-8--8-7-7-----10--7-7-7--7-8-----------|
E |1~-----3/------------------3/----------------3/------------------3/-------------------------|

G |------------------------------------------------------------------------------------------|
D |------------------------------------------------------------------------------------------|
A |----10--------8-----10-------8----10--------8-----10-------8------------------------------|
E |-3/-----3-3/-----3/-----3-3/----3/-----3-3/-----3/-----3-3/-------0--0-0---1--1-1---------|

G |----------------------------------------------------|
D |----------------------------------------------------|
A |----------10--8-8--8-7-7-----10--8-8--8-7-7---------|
E |--------3/-----------------3/-----------------------|

G |------------------------------------------------------------------------------------------|
D |------------------------------------------------------------------------------------------|
A |----10--------8-----10-------8----10--------8-----10-------8------------------------------|
E |-3/-----3-3/-----3/-----3-3/----3/-----3-3/-----3/-----3-3/-------0--0-0---1--1-1---------|

G |---------------------------------------------------|
D |---------------------------------------------------|
A |----------10--8-8--8-7-7----10--8-8--8-7-7---------|
E |--------3/----------------3/-----------------------|

Instrumental
G |-------------------------------------------------------------------------------------------|
D |-------------------------------------------------------------------------------------------|
A |----10-----8-------10-------8------10--------8-----10-------8------------------------------|
E |-3/-----3/------3/-------3/-----3/-------3/------3/-------3/-------3~ ------1~-----0~------|

Pre-chorus, Chorus and the outro are just the straight up chords.

Hope you like it....its my first tab =]
Have fun!!
            
Submit corrections

comments powered by Disqus
↑ Back to top | Hillsongs Bass for Freedom We Know. Lyrics for acoustic guitar and electric guitar. Tablatures and chords are parodies/interpretations of the original songs. You may use it for private study, scholarship, research or language learning purposes only