» » »

Hillsongs, For Who You Are Tabs (ver.1)

Artists:  A B C D E F G H I J K L M N O P Q R S T U V W X Y Z # 

For Who You Are Tabs (ver.1)

Hillsongs Tabs
Rating:
0/5 (0 votes)
For Who You Are lessons Tabs too difficult? Try these video lessons and learn fast
                TUNING:(eBGDAE)

Jeremy


~Intro~
e|----7-----------7----------------------------------------------------------|
B|-----------------------------12~~~~~---------------------------------------|
G|--8---8~~---8s9---9----(X2)------------------------------------------------|
D|---------------------------------------------------------------------------|
A|---------------------------------------------------------------------------|
E|---------------------------------------------------------------------------|

~Verse 1~
e|----------------------7---7------------------------------------------------|
B|---------------------------------------------------------------------------|
G|------------------------9---9~~--(Repeat Intro X1)-------------------------|
D|---------------------------------------------------------------------------|
A|---------------------------------------------------------------------------|
E|---------------------------------------------------------------------------|
  "...your presence..."

~Pre-Chorus~
e|-7---(X4)------6---(X4)---------4---(X4)------6---(X4)---------------------|
B|---9-------------7----------------5-------------7--------------------------|
G|---------------------------------------------------------------------------|
D|---------------------------------------------------------------------------|
A|---------------------------------------------------------------------------|
E|---------------------------------------------------------------------------|
  "Holy,        righteous,       faithful til' the end..."

e|-7---(X4)------6---(X4)---------4~~----------------------------------------|
B|---9-------------7--------------5~~----------------------------------------|
G|---------------------------------------------------------------------------|
D|---------------------------------------------------------------------------|
A|---------------------------------------------------------------------------|
E|---------------------------------------------------------------------------|
  "Savior,       healer,          redeemer and friend..."

~Chorus~
(Rest)

~Instrumental~
(Intro X1)

~Verse 1~
(Intro X2)

~Pre-Chorus~
(Pre-Chorus)

~Chorus~ (Figure out the strumming, it's very easy)
e|---------------------------------------------------------------------------|
B|---------------------------------------------------------------------------|
G|--4------------------------------------------------------------------------|
D|--4-----6-----4-----2------------------------------------------------------|
A|--2-----6-----4-----2------------------------------------------------------|
E|--------4-----2-----0------------------------------------------------------|

~Guitar Solo~
e|---------------------------------------------------------------------------|
B|------------------------------------------------------12-14-14h16p14-------|
G|-9--8--6--4~-|-9--11--8h9p8--8--6h8p6--6--4-|------------------------------|
D|----------------------------------------------9--8-------------------------|
A|---------------------------------------------------9~----------------------|
E|---------------------------------------------------------------------------|

e|----14---------------------------------------------------------------------|
B|--12--12---11-12-----------------------------------------------------------|
G|-----------------11-9-8~~--------------------------------------------------|
D|---------------------------------------------------------------------------|
A|---------------------------------------------------------------------------|
E|---------------------------------------------------------------------------|

~Bridge~
(Rest)

Chorus X2 then end on B chord
            

comments powered by Disqus
↑ Back to top | Hillsongs Tabs for For Who You Are. Lyrics for acoustic guitar and electric guitar. Tablatures and chords are parodies/interpretations of the original songs. You may use it for private study, scholarship, research or language learning purposes only