» » »

Hillsongs, Follow The Son Tabs (ver.2)

Artists:  A B C D E F G H I J K L M N O P Q R S T U V W X Y Z # 

Follow The Son Tabs (ver.2)

Hillsongs Tabs
Rating:
0/5 (0 votes)
Follow The Son lessons Tabs too difficult? Try these video lessons and learn fast
                Follow The Son
Tuning: Standard

Taken from the Hillsong Guitar Workshop with Nigel Hendroff and Timon Klein. It may not
perfect, but it sounds pretty close. Lead should use a delay, rhythm shouldn't.

Intro Riff [Rhythm] - intro/verse
(Really, these are just octaves, not power chords, but I play them as power chords cause 
like the sound a little better with my rig)
e---------------------------------|
b---------------------------------|
g-6-6-4-4-6-6-----4-4-4-4-4-4-4-4-|
d-6-6-4-4-6-6-4-4-2-2-2-2-4-4-4-4-|
a-4-4-2-2-4-4-4-4-2-2-2-2-2-2-2-2-|
E-------------2-2-0-0-0-0---------|

Intro Riff [Lead] - Play on Intro only

e-----------------------------------|
b-9-9-7-7-9-9-10-10-9-9-9-9-7-7-7-7-|
g-9-9-9-9-9-9-9--9--9-9-9-9-9-9-9-9-|
d-----------------------------------|
a-----------------------------------|
E-----------------------------------|

Verse Line [Lead] - Palm mute

e-------------------|
b-9-7-9-10-9--9-7---|
g--9-8-9--9-9----8--|
d------------9----9-|
a-------------------|
E-------------------|

Pre-Chorus [Rhythm]             Pre-Chorus [Lead]

e-0-0-2-4-                      e-----------|
b-0-0-4-5-                      b-10-9-7-9--|
g-2-1-4-6-                      g-11-9-8-9--|
d-2-2-4-6-                      d-9--9-9-11-|
a-0-2-2-4-                      a-----------|
E-2-0-x-x-                      E-----------|

Chorus [Rhythm]

e-0-0-0-0-0-0-0-0-0-0-0-0-0-0-0-0-2-2-2-2-2-2-2-2-4-4-4-4-2-2-2-2-|
b-2-2-2-2-2-2-2-2-0-0-0-0-0-0-0-0-4-4-4-4-4-4-4-4-5-5-5-5-4-4-4-4-|
g-2-2-2-2-2-2-2-2-1-1-1-1-1-1-1-1-4-4-4-4-4-4-4-4-6-6-6-6-4-4-4-4-|
d-2-2-2-2-2-2-2-2-2-2-2-2-2-2-2-2-4-4-4-4-4-4-4-4-6-6-6-6-4-4-4-4-|
a-0-0-0-0-0-0-0-0-2-2-2-2-2-2-2-2-2-2-2-2-2-2-2-2-4-4-4-4-2-2-2-2-|
E-0-0-0-0-0-0-0-0-0-0-0-0-0-0-0-0-x-x-x-x-x-x-x-x-x-x-x-x-x-x-x-x-|

Chorus [Lead]

e-9--9--9--9--9--9--9--9\--4-4-4-4-4-4-4-4/-11-11-11-11-12-12-12-12-|
b-10-10-10-10-10-10-10-10\-5-5-5-5-5-5-5-5/-12-12-12-12-12-12-12-12-|
g-9--9--9--9--9--9--9--9\--4-4-4-4-4-4-4-4/-11-11-11-11-11-11-11-11-|
d-------------------------------------------------------------------|
a-------------------------------------------------------------------|
E-------------------------------------------------------------------|

Post-Chorus Catches

[Rhythm]             [Lead]

e-x-x-x-             e-x-x-x--|
b-x-x-x-             b-x-x-x--|
g-6-4-2~             g-9-8-6~-|
d-6-4-2~             d-x-x-x--|
a-4-2-0~             a-7-6-4~-|
E-x-x-x-             E-x-x-x--|

Post-Catch Lines
[Rhythm]
e-------------------------|
b-------------------------|
g-------------------------|
d-------------------------|
a-4-4---------4-4-7-7-----|
E-----4-4-5-5---------7-7-|

[Lead]
e-12-12-11-11-12-12-------------12----11b12----|
b-------------------11-11-10-10----10-------12-|
g----------------------------------------------|
d----------------------------------------------|
a----------------------------------------------|
E----------------------------------------------|

Instrumental
[Rhythm]
e-0-0-x-x-4-4-x-x-7-7-x-x-2-2-x-x-0-0-x-x-4-4-x-x-7-7-x-x-9--9--|
b-2-2-x-x-5-5-x-x-9-9-x-x-4-4-x-x-2-2-x-x-5-5-x-x-9-9-x-x-11-11-|
g-2-2-x-x-6-6-x-x-9-9-x-x-4-4-x-x-2-2-x-x-6-6-x-x-9-9-x-x-11-11-|
d-2-2-x-x-6-6-x-x-9-9-x-x-4-4-x-x-2-2-x-x-6-6-x-x-9-9-x-x-11-11-|
a-0-0-x-x-4-4-x-x-7-7-x-x-2-2-x-x-0-0-x-x-4-4-x-x-7-7-x-x-9--9--|
E-x-x-x-x-x-x-x-x-x-x-x-x-x-x-x-x-x-x-x-x-x-x-x-x-x-x-x-x-x-x-x-|
(Repeat)

[Lead]
e-----xx-9-9-xx-------xx-------xx-----xx-----xx-------xx-------xx-|
b-5-5-xx-9-9-xx-12-12-xx-12-12-xx-5-5-xx-9-9-xx-12-12-xx-14-14-xx-|
g-6-6-xx-9-9-xx-13-13-xx-11-11-xx-6-6-xx-9-9-xx-13-13-xx-15-15-xx-|
d-7-7-xx-----xx-14-14-xx-13-13-xx-7-7-xx-----xx-14-14-xx-16-16-xx-|
a-----xx-----xx-------xx-------xx-----xx-----xx-------xx-------xx-|
E-----xx-----xx-------xx-------xx-----xx-----xx-------xx-------xx-|
(Repeat 1x, then)

e-----xx-9-9-xx-------xx-------|
b-5-5-xx-9-9-xx-12-12-xx-16-16-|
g-6-6-xx-9-9-xx-13-13-xx-16-16-|
d-7-7-xx-----xx-14-14-xx-16-16-|
a-----xx-----xx-------xx-------|
E-----xx-----xx-------xx-------|


Order:
Rhythm

Intro riff x12
Pre chorus x1
Chorus x3
Catches x1
Post-catch line x1 (lead), intro riff x5
Pre-chorus x1
Chorus x 3
Catches x1
Post-catch lines x3
(Instrumental call and response - Rhythm calls, Lead responds)
Pre-chorus (very quiet, light distortion - only 1st chord)
Chorus (strum 1st chord only)
Chorus x1
Catches
Chorus x3
Catches
Post-catch lines x3
            

comments powered by Disqus
↑ Back to top | Hillsongs Tabs for Follow The Son. Lyrics for acoustic guitar and electric guitar. Tablatures and chords are parodies/interpretations of the original songs. You may use it for private study, scholarship, research or language learning purposes only