» » »

Hillsongs, Faith Bass tabs (ver.1)

Artists:  A B C D E F G H I J K L M N O P Q R S T U V W X Y Z # 

Faith Bass tabs (ver.1)

Hillsongs Tabs
Rating:
0/5 (0 votes)
Faith lessons Tabs too difficult? Try these video lessons and learn fast
                This is my first tab so I'm not really sure about the lengths of the note, please
forgive me if it's not that accurate. This tab is actually based on one of the bass 
covers of
useful. God Bless. :)

Faith
Hillsong

Key: E
Standard tuning


Intro:
G|-----------------------------------------|
D|-----------------------------------------|   (2x)
A|-2/7-7-7--3--2-2--2-------------2-2--2---|
E|------7-------2--2---5-0-5-030---2--2----|

Verse:
G|-------------------------------------------|
D|-------------------------------------------|    (2x)
A|-7-5---5--7-5---5--5-0-3--030-5-0-7--030---|
E|--7---7-7--7---7-7-------------------------|

Refrain:
Greater is he...
G|----------------------------------------------|
D|----------------------------------------------|
A|-------------5-0-5--723-----------2-2-2-2-22--|
E|---5-0-5--723----------5-0-5--723-------------|

Chorus:
G|-----------------------------------------|
D|-----------------------------------------|
A|-2/7-7-7--3--2-2--2-------------2-2--2---|
E|------7-------2--2---5-0-5-030---2--2----|

G|-----------------------------------------|
D|-----------------------------------------|
A|-2/7-7-7--3--2-2--2-------------2-2-2----|
E|------7-------2--2---5-0-5-030-----------|

then intro
Verse
Chorus

Bridge:
Bass Solo
G|--911-12-12-1211---------------------------------12---12-11-----|
D|----------------12--1214-14-1412--1214-14-1412-12---12-----12---|
A|----------------------------------------------------------------|
E|----------------------------------------------------------------|

Tablature Legend
----------------
 h   - hammer-on
 p   - pull-off
 b   - bend
 pb  - pre-bend
 r   - bend release (if no number after the r, then release immediately)
 /\  - slide into or out of (from/to "nowhere")
 s   - legato slide
 S   - shift slide
  - natural harmonic
[n]  - artificial harmonic
n(n) - tapped harmonic
 ~   - vibrato
 tr  - trill
 T   - tap
 TP  - trem. picking
 PM  - palm muting
\n/  - tremolo bar dip; n = amount to dip
 \n  - tremolo bar down
 n/  - tremolo bar up
/n\  - tremolo bar inverted dip
 =   - hold bend; also acts as connecting device for hammers/pulls
 <>  - volume swell (louder/softer)
 x   - on rhythm slash represents muted slash
 o   - on rhythm slash represents single note slash

Misc Legend
-----------
 |  - bar
||  - double bar
||o - repeat start
o|| - repeat end
*|  - double bar (ending)
 :  - bar (freetime)
 $  - Segno
 &  - Coda
Tempo markers -  = BPM(8/16=s8/s16), where s8 = swing 8ths, s16 = swing 16ths
            
Submit corrections

comments powered by Disqus
↑ Back to top | Hillsongs Bass for Faith. Lyrics for acoustic guitar and electric guitar. Tablatures and chords are parodies/interpretations of the original songs. You may use it for private study, scholarship, research or language learning purposes only