» » »

Hillsongs, Everything To Me Tabs (ver.1)

Artists:  A B C D E F G H I J K L M N O P Q R S T U V W X Y Z # 

Everything To Me Tabs (ver.1)

Hillsongs Tabs
Rating:
0/5 (0 votes)
Everything To Me lessons Tabs too difficult? Try these video lessons and learn fast
                this is what I heard from the original sound track so just tell me if I'm wrong and send 
the correct ones
standard tuning: EADGBe (heavy distortion of the like)
INTRO:
Guitar 1: play this 2 times
e---------------------------------------------------------------------------|
B---------------------------------------------------------------------------|
G---------------------------------------------------------------------------|
D--14---14---14----14h17-14-------------------------------------------------|
A-----15---15---15---------14----14---14----14h15--14--15---15---15---15----|
E-----------------------------15---15----15---------------17---17---17---17-|
continue
e-------------------------------------------------------------------------|
B-------------------------------------------------------------------------|
G-------------------------------------------------------------------------|
D-------------------------------------------------------------------------|
A---20--20--20---19---17--19--17------------------------------------------|
E-------------------------------------------------------------------------|

Guitar 2: together with guitar one for intro
C-G-Am-F play this two times

Verse: C-G-Am-F

Pre-Cho:
Am-F-C-G

Cho:

C-G-Am-F

Intro: play one time

Verse: C-G-Am-F
Jesus CHrist, King of Glory

Pre-Cho: Am-F-C-G
Forever Your name will be praise...

Cho: C-G-Am-F
And I will never stop praising you...Jesus You're everything to me
Bridge:
Guitar 1: (distortion)

e-------------------------------------------------------------------------|
B-------------------------------------------------------------------------|
G-------------------------------------------------------------------------|
D---15(4 beats)--14---14---14----14h15--14--15---15---15--15--------------|
A-------------------15---15---15---------------17---17--17---17-----------|
E-------------------------------------------------------------------------|
continue
e-------------------------------------------------------------------------|
B-------------------------------------------------------------------------|
G-------------------------------------------------------------------------|
D-------------------------------------------------------------------------|
A--20--20--20--19--17--19--17---------------------------------------------|
E-------------------------------------------------------------------------|

Guitar 2: C-G-Am-F (together w/ guitar 1)
Jesus You're everything to me...

Chorus

End on C
Jesus!

Listen to the song cause it will help alot in the timing
tnx
Jesus is everything!!! AMen!!!
            
Submit corrections

comments powered by Disqus
↑ Back to top | Hillsongs Tabs for Everything To Me. Lyrics for acoustic guitar and electric guitar. Tablatures and chords are parodies/interpretations of the original songs. You may use it for private study, scholarship, research or language learning purposes only