» » »

Hillsongs, Every Move I Make Tabs (ver.1)

Artists:  A B C D E F G H I J K L M N O P Q R S T U V W X Y Z # 

Every Move I Make Tabs (ver.1)

Hillsongs Tabs
 Rating:
4/5 (4 votes)
Every Move I Make lessons Tabs too difficult? Try these video lessons and learn fast
                Every Move I make
m=Mute


Start with Guitar Solo
    G              C         D       C
E|-10----10---10—-10-8-8-8---5—-5--7--5-3-3-3-----|
B|------------------------------------------------|
G|------------------------------------------------|     
D|------------------------------------------------|  x 2 
A|------------------------------------------------|
E|------------------------------------------------|

Verse 1: Every move I make I make in you, you make me………………………
   G    G     C    C   D    D     C    C
E|-------------------------------------------------|
B|-------------------------------------------------|
G|-----------------5-5-------7-7—-x-5----5---------| 
D|------5-5---5-5--5-5--7-7--7-7—-x-5-55-5---------|  x 2
A|-5-5--5-5---3-3--3-3--5-5--5-5—-x-3-33-3---------|
E|-3-3--3-3----------------------------------------|
   m m        m m       m m           mm

Guitar Solo

Verse 2: Waves of Mercy, waves of…………………
  Am  E  Bm  C D
E|---------------------------------|
B|---------------------------------|
G|---------------------------------|        
D|-2-------4---3-5-----------------|    x 4
A|-0---2---2---5-7-----------------|
E|-----0---------------------------|

Guitar Solo: La la la la la la la…………………………          x many times
            
Submit corrections

comments powered by Disqus
↑ Back to top | Hillsongs Tabs for Every Move I Make. Lyrics for acoustic guitar and electric guitar. Tablatures and chords are parodies/interpretations of the original songs. You may use it for private study, scholarship, research or language learning purposes only